Oops, an error
Loading. Please wait.

Say Something Tab

version 1
version 1

Acoustic

Whole song

Interactive

4,353 views 27 this week
1 commentread comment
1 2 3 4 5
excellent!
x 7
add to favorites
launch autoscroll
font size
0
reset
how to read this tab
guitar tuner
Autoscroll
slow
fast
+/-
esc
set tempo
stop
Help us to improve Ultimate-Guitar.com Take our survey!
×
Contributor
Capo
2nd fret
-------------------------------------------------------------------------------
                             Say Something - A Great Big World
-------------------------------------------------------------------------------
Tabbed by: Liam Cushing
E-mail: liamcushing@ccb.vic.edu.au

Tuning: Standard Tuning
Capo 2

t - Right hand tap/slap (just hit the strings mute with right hand)

Intro: x5 (Don't repeat the first 4 on the B string, they are only in the first one)
(Am F C G)
e|-----------------------------------------------------------------------|
B|-1-----1-----1-----1-----1-----------1-----------1-----------3---------|
G|-------------------------2-----------2-----------0-----------0---------|
D|-------------------------2-----------3-----------2-----------0---------|
A|-------------------------0-----t-----0-----t-----3-----t-----------t---|
E|-------------------------------t-----------t-----------t-----3-----t---|

    C                Em            
And I am feeling so small.
        F
It was over my head
                  C     G
I know nothing at all.

    C                   Em  
And I will stumble and fall.
            F
I'm still learning to love
                 C     G
Just starting to crawl.


Am               F               C        G 
  Say something, I'm giving up on you.
Am              F                  C        G 
  I'm sorry that I couldn't get to you.
Am           F                    C         G
  Anywhere, I would've followed you.
Am                F                C        G 
  Say something, I'm giving up on you.


  And I               Will swallow my pride,              You're the     
e|-------------------------------------------------------|
B|----1-------------1-------------0-------------0--------|
G|----0-------------0-------------0-------------0--------|
D|----2-------------2-------------2-------------2--------|
A|----3------t------3------t------2------t------2------t-|
E|-----------t-------------t-------------t-------------t-|

     one    that I love, and I'm saying goodbye
e|-------------------------------------------------------|
B|----1-------------1-------------1-------------3--------|
G|----2-------------2-------------0-------------0--------|
D|----3-------------3-------------2-------------0--------|
A|----0------t------0------t------3------t---------------|
E|-----------t-------------t-------------t------3--------|


Am               F               C        G 
  Say something, I'm giving up on you.
Am                F                  C        G 
 And I'm sorry that I couldn't get to you.
Am           F                    C         G
  Anywhere, I would've followed you.
Am                F                C        G 
  Say something, I'm giving up on you.


     Say something, I'm giving up on you.                  
e|-----------------------------------------------------------|
B|-1---------------1---------------1---------------3---------|
G|-2---------------2---------------0---------------0---------|
D|-2---------------3---------------2---------------0---------|
A|-0-------t-------0-------t-------3-------t---------------t-|
E|---------t---------------t---------------t-------3-------t-|

  Say something...
e|-----------------------------------------------------------|
B|-1---------------1---------------1---------------3---------|
G|-2---------------2---------------0---------------0---------|
D|-2---------------3---------------2---------------0---------|
A|-0-------t-------0-------t-------3-------t---------------t-|
E|---------t---------------t---------------t-------3-------t-|
comments
print report bad tab
1 comment total.
0 reply
YEIS0N 139 wrote on March 29 2016, 05:49 pm

Wow Thanks this is the first good version of this song I have seen so far. Great job!

I want to post or [tab]
guest
You may want to rate the tab now too:
select rating
Please do not post tabs as comments. Select "correction" instead!