Oops, an error
Loading. Please wait.
We have an official Say Something tab made by UG professional guitarists. Check out the tab »
×

Say Something tab

version 10
version 10

Whole song

  • My tab is more advanced and is a mix between lead ... Show more
  • This version has extra details in some areas.
  • Acoustic version with Tab and chords. Played with ... Show more
  • This song is played in capo 2 and the rhythm rather slow.

Interactive

235 views 6 this week
no commentswrite comment
1 2 3 4 5
2 more votes to show rating
add to favorites
×
Save as Personal and add changes to this tab that will be seen only by you. Learn more ›
×
You can save this tab as Personal to edit and correct it or add notes. All changes will be seen only by you. Learn more »
launch autoscroll
font size
0
reset
how to read this tab
guitar tuner
edit
Autoscroll
slow
fast
+/-
esc
set tempo
stop
About this tab version
Acoustic version with Tab and chords. Played with capo on 2nd fret makes it easy to play along with piano version from youtube https://www.youtube.com/watch?v=-2U0Ivkn2Ds. Was this info helpful? Yes No
Artist - A Great Big World
Song - Say Something (Acoustic Version)
Tab by - David Ehlert

Here is a simple way to play the song. It can be played right along with the piano version.
I hope you have fun learning and playng it!
All comments, corrections and suggestions are welcome.
Thanks
Obfried

!!!!!!!!!!!!!!!!!!!!!PLEASE RATE IF YOU LIKE THIS TAB!!!!!!!!!!!!!!!!!!!!!!!!!!!!


STANDARD TUNING

CAPO ON 2nd FRET

CHORDS
       C  or  C      G      F     Am
e|-----0------3------3------1------0------|
b|-----1------5------3------1------1------|
g|-----0------5------4------2------2------|
d|-----2------5------5------3------2------|
a|-----3------3------5------3------0------|
E|-----0------3------3------1------0------|


[Intro]
e|---------------------------|
b|----1----1----1----1--1----|
g|---------------------------|
d|---------------------------|
a|----0----0----0----0--0----|
E|---------------------------|

e|------------------------------------------------------------------------------|
b|---------1--------------1--------------1--------------1-----------------------|
g|------------------------0-----------------------------0-----------------------|
d|------------------------------------------------------------------------------|
a|---------0--------------------------------------------------------------------|
E|---------------------------------------1--------------------------------------|
                       
e|------------------------------------------------------------------------------|
b|---------1--------------1--------------1--------------1-----------------------|
g|------------------------0-----------------------------0-----------------------|
d|------------------------------------------------------------------------------|
a|---------3--------------------------------------------------------------------|
E|---------------------------------------3--------------------------------------|



[Chorus]
e|------------------------------------------------------------------------------|
b|---------1--------------1--------------1--------------1-----------------------|
g|------------------------0-----------------------------0-----------------------|
d|------------------------------------------------------------------------------|
a|---------0--------------------------------------------------------------------|
E|---------------------------------------1--------------------------------------|
                          Say something, I'm   giving   up   on   you

e|------------------------------------------------------------------------------|
b|---------1--------------1--------------1--------------1-----------------------|
g|------------------------0-----------------------------0-----------------------|
d|------------------------------------------------------------------------------|
a|---------3--------------------------------------------------------------------|
E|---------------------------------------3--------------------------------------|



e|------------------------------------------------------------------------------|
b|---------1--------------1--------------1--------------1-----------------------|
g|------------------------0-----------------------------0-----------------------|
d|------------------------------------------------------------------------------|
a|---------0--------------------------------------------------------------------|
E|---------------------------------------1--------------------------------------|
                          I'll  be  the  one,  if  you  want  me  to

e|------------------------------------------------------------------------------|
b|---------1--------------1--------------1--------------1-----------------------|
g|------------------------0-----------------------------0-----------------------|
d|------------------------------------------------------------------------------|
a|---------3--------------------------------------------------------------------|
E|---------------------------------------3--------------------------------------|
 


e|------------------------------------------------------------------------------|
b|---------1--------------1--------------1--------------1-----------------------|
g|------------------------0-----------------------------0-----------------------|
d|------------------------------------------------------------------------------|
a|---------0--------------------------------------------------------------------|
E|---------------------------------------1--------------------------------------|
                          A-ny-where,    I   would've   followed you

e|------------------------------------------------------------------------------|
b|---------1--------------1--------------1--------------1-----------------------|
g|------------------------0-----------------------------0-----------------------|
d|------------------------------------------------------------------------------|
a|---------3--------------------------------------------------------------------|
E|---------------------------------------3--------------------------------------|
 


e|------------------------------------------------------------------------------|
b|---------1--------------1--------------1--------------1-----------------------|
g|------------------------0-----------------------------0-----------------------|
d|------------------------------------------------------------------------------|
a|---------0--------------------------------------------------------------------|
E|---------------------------------------1--------------------------------------|
                          Say something, I'm   giving   up   on   you

e|------------------------------------------------------------------------------|
b|---------1--------------1--------------1--------------1-----------------------|
g|------------------------0-----------------------------0-----------------------|
d|------------------------------------------------------------------------------|
a|---------3--------------------------------------------------------------------|
E|---------------------------------------3--------------------------------------|



[Verse 1]
                         
    C               G
And I am feeling so small

       F            
It was over my head

                  C         G
I know nothing at all

    C                  G
And I will stumble and fall

          F                
I'm still learning to love

                 C          G
Just starting to crawl



[Chorus]

Am             F                       C        G
Say something, I'm giving up on you

Am             F                       C        G
I'm sorry that I couldn't get to you

Am             F                       C        G
A-ny-where,    I would've followed you

Am             F                       C        G
Say something, I'm giving up on you



[Verse 2]

    C                 G
And I will swallow my pride

           F              
You're the one that I love

               C            G
And I'm saying goodbye



[Chorus]

Am             F                       C        G
Say something, I'm giving up on you

Am             F                       C        G
I'm sorry that I couldn't get to you

Am             F                       C        G
A-ny-where,    I would've followed you        Oh, oh, oh, oh 

Am             F                       C        G
Say something, I'm giving up on you

Am             F                       C        G
Say something, I'm giving up on you

Am             F                       C        G
Say something

            
            
Suggest correction
Creating personal tab
Creating personal tab
You can edit any tab online and save it as your Personal.

You can edit, replace or remove any tab part or add personal notes – all changes will be seen only by you.

Personal tabs can be accessed anytime from any device, even offline.
Learn more »
Give kudos to tab author, rate the tab!
1 2 3 4 5
comments
print report bad tab
guest
You may want to rate the tab now too:
select rating
Wanna post a correction for this tab? Suggest correction