Oops, an error
Loading. Please wait.

A Rush Seige Tab

458 views 1 this week
no commentswrite comment
1 2 3 4 5
please rate
add to favorites
launch autoscroll
font size
0
reset
how to read this tab
guitar tuner
Tab Pro tools
  • play this tab
  • loop segment
  • change instrument
  • show fretboard
  • metronome
×
Best way to learn
"A Rush Seige"
Autoscroll
slow
fast
+/-
esc
set tempo
stop
Contributor
--------------------------------------------------|
--------------------------------------------------|
--------------------------------------------------|
-----------------------------------------------*5b| x2
7--5-5b-----------5-------7-5-5b-----------5------|
5--3----3-1--0--3---3-1b--5-3----3-1--0--3---3----|

------------------|--------------|--------------------------------|
------------------|--------------|--------------------------------|
------------------|--------------|--------------------------------|
----3-0-----------|7h9h10-9h10h12|--------------------------------| x3
000-----1-1h3h4-x3|--------------|000-5-0----000000-00000---0-----|
000---------------|--------------|000---0-3b-000000-00000-1-0-1-3b|

-------------------------------------|
-------------------------------------|
-------------------------------------|
-------------------------------------|
0000----0000-5-7-0000-7-9-0-5-7-0-3-5| x4
0000-3b-0000-----0000-----0-----0----|

------------------|--------------|--------------------------------|
------------------|--------------|--------------------------------|
------------------|--------------|--------------------------------|
----3-0-----------|7h9h10-9h10h12|--------------------------------| x3
000-----1-1h3h4-x3|--------------|000-5-0----000000-00000---0-----|
000---------------|--------------|000---0-3b-000000-00000-1-0-1-3b|

-------------------------------------|
-------------------------------------|
-------------------------------------|
-------------------------------------|
0000----0000-5-7-0000-7-9-0-5-7-0-3-5| x4
0000-3b-0000-----0000-----0-----0----|

Pause

-------------------------------------|
-------------------------------------|
-------------------------------------|
-------------------------------------|
0000----0000-5-7-0000-7-9-0-5-7-0-3-5| x2
0000-3b-0000-----0000-----0-----0----|

--------------------------------|
--------------------------------|
--------------------------------|
--------------------------------|
5-0000-5-0000-----------------x3|
3-0000-3-0000-5-1-1-1-5-1-1-1---|

*Solo*
----------------------------------------------------------------------------|
---------10-12-13-15-13-12-10-13-12-10-7------------------------------------|
-----------------------------------------12-10-12-10-12-15-17-15-14-15-14-12|
10-12-13--------------------------------------------------------------------|
----------------------------------------------------------------------------|
----------------------------------------------------------------------------|

------------------------------------------------------------|
-------7-9-10-12-10-9-7-10-9-7------------------------------|
-------------------------------9-7-9-7-9-12-14-12-11-12-11-9|
7-9-10------------------------------------------------------|
------------------------------------------------------------|
------------------------------------------------------------|

----------------------------------------------------------------------------|
---------10-12-13-15-13-12-10-13-12-10-7------------------------------------|
-----------------------------------------12-10-12-10-12-15-17-15-14-15-14-12|
10-12-13--------------------------------------------------------------------|
----------------------------------------------------------------------------|
----------------------------------------------------------------------------|

-------------------------------------------------------------|
-------7-9-10-12-10-9-7-10-9-7-------------------------------|
-------------------------------9-7-9-7-9-12-14-12-11-12-11-9b|
7-9-10-------------------------------------------------------|
-------------------------------------------------------------|
-------------------------------------------------------------|

----------------------------------------------------|
----------------------------------------------------|
----------------------------------------------------|
----------------------------------------------------|
55-0000-55-0-55-0-55-0000000000-55-0000-55-0-55-0---|
33-0000-33-0-33-0-33-0000000000-33-0000-33-0-33-0-1b|

---------------------------------------------------------------|
---------------------------------------------------------------|
---------------------------------------------------------------|
---------------------------------------------------------------|
0000000000-11-0000-11-0-11-0-11-0000000000-11-0000-11-0-11-0-11|
0000000000-11-0000-11-0-11-0-11-0000000000-11-0000-11-0-11-0-11|

-----------------------------------------------------------|
-----------------------------------------------------------|
-----------------------------------------------------------|
-----------------------------------------------------------|
5-0000-5-0000-----------------5-0000-5-0000----------------| x2
3-0000-3-0000-5-1-1-1-5-1-1-1-3-0000-3-0000-5-1-1-1-5-0-0-0|


------------------|--------------|------------------------------------|
------------------|--------------|------------------------------------|
------------------|--------------|------------------------------------|
----3-0-----------|7h9h10-9h10h12|14-12-11-12-10-9-10-9-7-9-7-6-7-5-4b|
000-----1-1h3h4-x3|--------------|------------------------------------|
000---------------|--------------|------------------------------------|

--------------------------------|
--------------------------------|
--------------------------------|
--------------------------------| x3
000-5-0----000000-00000---0-----|
000---0-3b-000000-00000-1-0-1-3b|

-------------------------------------|
-------------------------------------|
-------------------------------------|
-------------------------------------|
0000----0000-5-7-0000-7-9-0-5-7-0-3-5| x2
0000-3b-0000-----0000-----0-----0----|
comments
We did not receive enough feedback on this tab! Please rate:
print report bad tab
1 2 3 4 5
I want to post or [tab]
guest
You may want to rate the tab now too:
select rating
Please do not post tabs as comments. Select "correction" instead!