Oops, an error
Loading. Please wait.

Everything Becomes Still Tab

139 views 1 this week
no commentswrite comment
1 2 3 4 5
3 more votes to show rating
add to favorites
launch autoscroll
font size
0
reset
how to read this tab
guitar tuner
Autoscroll
slow
fast
+/-
esc
set tempo
stop
Help us to improve Ultimate-Guitar.com Take our survey!
×
Author
Difficulty
intermediate
----------------------|--------------------|----------------------|
----------------------|--------------------|----------------------|
----------------------|--------------------|----------------------|
----------------------|--------------------|----------------------|
7-9-10-9-10-12-9h10-x4|11-10-13-12-10h11-x2|7-9-10-9-10-12-9h10-x2|
----------------------|--------------------|----------------------|

-----------------------------------|
-----------------------------------|
7h9-9-9h11-11-11p9-9-9p7-7-7h9-9-x2|
-----------------------------------| Repeat all 3 times
-----------------------------------|
-----------------------------------|

---------------------|-----------------|
---------------------|-----------------|
12-10-9-7-10-9-7-5-x6|12-10h12p10-12h14|
---------------------|-----------------|
---------------------|-----------------|
---------------------|-----------------|

---------------------|---------------------------|
---------------------|---------------------------|
12-10-9-7-10-9-7-5-x6|12-10h12p10-12h14-14p12-14b|
---------------------|---------------------------|
---------------------|---------------------------|
---------------------|---------------------------|


-------------------------------------------------------|
--------------------------------------------21-19-19h21|
12---13h15-15h17-17h19-19p17-17p15-15h17-19------------|
-------------------------------------------------------|
-------------------------------------------------------|
-------------------------------------------------------|

---------------------------------------|
10h12-12h14-14h16-19hp17-17h19-19p17\15|
---------------------------------------|
---------------------------------------|
---------------------------------------|
---------------------------------------|

--------------------------------------------|
10h12-12h14-14h16-17p15-15-15p13-13-13p15-15|
--------------------------------------------|
--------------------------------------------|
--------------------------------------------|
--------------------------------------------|

-----------------------------------------------------------------------|
15-15-15p13-13h15-15-15/12-10h12p10-12h14h12-12h14-14-17-15-15h17p15-17|
-----------------------------------------------------------------------|
-----------------------------------------------------------------------|
-----------------------------------------------------------------------|
-----------------------------------------------------------------------|

------15-------15-------15-------15-------17---------------------|
17-15----17-15----17-15----17-15----17-15------------------------|
---------------------------------------------12-10h12p10-14p12-14|
-----------------------------------------------------------------|
-----------------------------------------------------------------|
-----------------------------------------------------------------|

--------------------------------------------------------|
--------------------------------------------------------|
14-14h17-15-17p15-17p15-17h19-17p15-17-15-17p15-21p19-15|
--------------------------------------------------------|
--------------------------------------------------------|
--------------------------------------------------------|

--------------|-----------------------------------|
--------------|-----------------------------------|
12h14p12-12-14|9p10-10-10-10-10-10-10-10-10-9-0-x2|
--------------|-----------------------------------|
--------------|-----------------------------------|
--------------|-----------------------------------|

--------------|------------------|
--------------|------------------|
--------------|------------------|
----------0-x4|-----------------0|
9p10-10p9-----|9p10--12p10-10p9--|
--------------|------------------|

-----------------------------------------------------|
-----------------------------------------------------|
12h14-14-15h17-17p15-14p12-10-12-12p10-10-12p14-14-14|
-----------------------------------------------------|
-----------------------------------------------------|
-----------------------------------------------------|

-----------------------------------------|
-----------------------------------------|
12h14-14-15h17-17p15-14p12-10-12-12p10-10|
-----------------------------------------|
-----------------------------------------|
-----------------------------------------|

15-15--15-15-15-Till-the-end|
13-13--13-13-13-------------|
----------------------------|
----------------------------|
----------------------------|
----------------------------|

I started messing up near the end. Everything's hard to make out. 
Suggest correction
Give kudos to tab author, rate the tab!
1 2 3 4 5
comments
print report bad tab
guest
You may want to rate the tab now too:
select rating
Wanna post a correction for this tab? Suggest correction