Oops, an error
Loading. Please wait.

I Give In Tab

436 views 1 this week
1 commentread comment
1 2 3 4 5
2 more votes to show rating
add to favorites
launch autoscroll
font size
0
reset
how to read this tab
guitar tuner
Autoscroll
slow
fast
+/-
esc
set tempo
stop
Help us to improve Ultimate-Guitar.com Take our survey!
×
Difficulty
novice
Song: I Give In
Artist: A Life Once Lost
Album: Hunter
Tuning: D A D G B E

p.h = pinch harmonic
b = bend
* = Palm Mute

Intro Riff

E -------------------------------------------------------------------------|
B -------------------------------------------------------------------------|
G --------------------------------------------------------3b------------3--|b
D ---------------------------4b-------------4b-----------------------------|
A 6b------------6b---------------------------------------------------------|
D ---3-3-3-3-3-----3-3-3-3-3-----3-3-3-3-3-----3-3-3-3-3-----3-3-3-3-3-----|

E ----------------------------------------|
B ----------------------------------------|
G ----------------------------------------|
D ----------------------------------------|
A -----------6b------------6b-----------6-|
D 3-3-3-3-3-----3-3-3-3-3-----3-3-3-3-3---|

Verse Riff

E ----------------------------------------------------------------------|
B ----------------------------------------------------------------------|
G ----------------------------------------------------------------------|
D ----------------------------------------------------------------------|
A ----3-----5-----3----------3-----5-----3---------3------3-----5-----3-|
D 4b-----4----3-4---4b-0-4b-----4----3-4---4b-0-4b---0-4b----4----3-4---|
                       *                      *      *

E ---------------------------------------------------------|
B ---------------------------------------------------------|
G ---------------------------------------------------------|
D ---------------------------------------------------------|
A ---------3-----5-----3---------3------3-----5-----3------|
D 4b-0-4b-----4----3-4---4b-0-4b--0-4b-----4----3-4---4b-0-|
     *                      *     *                      *

Chorus

E ----------------------------------|
B ----------------------------------|
G ----------------------------------|
D ----------------------------------|  x4
A ----------------------------------|
D 6b--6b--3-3-3-6b--6b--3-3-3-3-3---|
          * * *         * * * * *
E -------------------------------------|
B -------------------------------------|
G -------------------------------------|
D -------------------------------------| x4 (harmonizes on the third time with the
A -------------------------------------|     lead guitar hitting 6s instead of 3s)
D 3b--3b--0-0-0-3b--3b--0-0-0-0-0------|
          * * *         * * * * *

Breakdown

E ----------------------------------|
B ----------------------------------|
G ----------------------------------| x6 (the first time its the lead only, and
D ----------------------------------|     before the third there is a pick slide
A ---3------------------------------|     a pinch harmonic)
D 3----0-0-0-0-0-0-000-0-0-0-0------|

The entire song goes:
Intro Riff x1
Verse Riff x1
Chorus x1
Intro Riff x1
Verse Riff x1
Chorus x1
Breakdown
Chorus
Play the breakdown riff a few times then its over!
Suggest correction
Give kudos to tab author, rate the tab!
1 2 3 4 5
comments
print report bad tab
1 comment total.
0 reply
Field Goal 135 Dec 23, 2008 04:47 PM

this tab isnt right in d. the notes work if you play in drop c or something like that

guest
You may want to rate the tab now too:
select rating
Wanna post a correction for this tab? Suggest correction