Oops, an error
Loading. Please wait.

Joan Said Please Tab

88 views 1 this week
no commentswrite comment
1 2 3 4 5
please rate
add to favorites
launch autoscroll
font size
0
reset
how to read this tab
guitar tuner
Autoscroll
slow
fast
+/-
esc
set tempo
stop
Help us to improve Ultimate-Guitar.com Take our survey!
×
Author
Difficulty
intermediate
*Tremelo Pick*
-------------|------------------------------|
7-6-9-6-7-6-9|5-4-5--7-5-4--12-10-9--12-10-9|
-------------|------------------------------|
-------------|------------------------------|
-------------|------------------------------|
-------------|------------------------------|
0:00-0:08        0:09-0:14

*Tremelo Pick*
-------------|------------------------------|
7-6-9-6-7-6-9|5-4-5--7-5-4--12-10-9--12-10-9|
-------------|------------------------------|
-------------|------------------------------|
-------------|------------------------------|
-------------|------------------------------|
0:15-0:21          0:22-0:27

*Tremelo Pick*
----------------------------------------------|
----------------------------------------------|
----------------------------------------------|
3-5-6-5-3-1-3--3-5-6-12--9-12/----------------| x3
-------------------------x--x-----------------|
-------------------------7-10/----------------|

*Tremelo Pick*
--------------------------|----------------------------|
--------------------------|-12-12-12-12-12-12-15-12-12b|
--------------------------|9--9--9--9--9--9--9--9--9---|
3-5-6-5-3-1-3--3-5-6-12--9|----------------------------|
--------------------------|----------------------------|
-------------------------7|----------------------------|
                               0:45-1:11

---------|----------|-------------------------12|
---------|----------|7-9-10-12--7-9-10-12-9-10--|
---------|----------|---------------------------|
---------|----------|---------------------------|
1-1-7\-x4|1-1-5-----|---------------------------|
1-1-7\---|1-1-5-----|---------------------------|
           1:13-1:27  1:28-1:49

------5--7-5-4-5-3-2-------5--7-5-7-10-9-7|
------------------------------------------|
5-4-3----------------5-4-3----------------|
------------------------------------------|
------------------------------------------|
------------------------------------------|

------5--7-5-4-5-3-2-------5--7-9-12-13|
---------------------------------------|
5-4-3----------------5-4-3-------------|
---------------------------------------|
---------------------------------------|
---------------------------------------|

-----13p14|
13p12-----|
----------|
----------|
----------|
----------|
2:02-2:23


17-15-14-12-12h14h15p14p12-9h11h12p11h12h14\|
--------------------------------------------|
--------------------------------------------|
--------------------------------------------|
--------------------------------------------|
--------------------------------------------|

3p5-7h5-3h5/7|
-------------|
-------------|
-------------|
-------------|
-------------|
2:28-2:51

*Tremelo Pick*
-------------|---------------------|
7-6-9-6-7-6-9|---------------------|
-------------|---------------------|
-------------|---------------------|
-------------|0-0-0-0-0-0-0-0-0-0-0|
-------------|0-0-0-0-0-0-0-0-0-0-0|
2:52-3:17

*Tremelo Pick*
-------------|--------------------------|
7-6-9-6-7-6-9|--------------------------|
-------------|--------------------------|
-------------|--------------7-5-7-9-11-9|
-------------|0-0-0-0-0-0-0-x-x-x-x-x--x|
-------------|0-0-0-0-0-0-0-5-3-5-7-9--7|
3:22-3:30

*Tremelo Pick*
-------------|--------------------------|
7-6-9-6-7-6-9|--------------------------|
-------------|--------------------------|
-------------|--------------7-5-7-9-11-9|
-------------|0-0-0-0-0-0-0-x-x-x-x-x--x|
-------------|0-0-0-0-0-0-0-5-3-5-7-9--7|
3:35-3:43

*Tremelo Pick*
-------------|
7-6-9-6-7-6-9|
-------------|
-------------|
-------------|
-------------|
3:47-3:51

12-11-12-15-12-11-12-15-14-13--12-11-12-15-12-11-12-15-14-12-15|
---------------------------------------------------------------|
---------------------------------------------------------------|
---------------------------------------------------------------|
---------------------------------------------------------------|
---------------------------------------------------------------|
*Tremelo Pick All*
12-15-14-12-13|15-14-17-15|
--------------|-----------|
--------------|-----------|
--------------|-----------|
--------------|-----------|
--------------|-----------|
3:57-4:00      Play till end 
Suggest correction
Give kudos to tab author, rate the tab!
1 2 3 4 5
comments
print report bad tab
guest
You may want to rate the tab now too:
select rating
Wanna post a correction for this tab? Suggest correction