Oops, an error
Loading. Please wait.

Pain And Panic Tab

360 views 3 this week
no commentswrite comment
1 2 3 4 5
please rate
add to favorites
launch autoscroll
font size
0
reset
how to read this tab
guitar tuner
Autoscroll
slow
fast
+/-
esc
set tempo
stop
Help us to improve Ultimate-Guitar.com Take our survey!
×
Author
Difficulty
Tuning
intermediate
D A D G B E
----------------------------------|
----------------------------------|
----------------------------------|
----------------------------------|
5-3-----------------------------*5|
5-3--0-3-0-3-0-3-0-3-3-0-3-0-3-0--|

--------------------------------------------|
--------------------------------------------|
--------------------------------------------|
--------------------------------------------|
------------------------------12-12-12------|
0-3-0-3-0-3-0-3-3-0-3-0-3-0-3-10-10-10--/12\|

-------------------------------------|
-------------------------------------|
-------------------------------------|
-------------------------------------|
--------------------------------5-5-5|
0-3-0-3-0-3-0-3-3-0-3-0-3-0-3-0-3-3-3|

---------------------------------------------------|
---------------------------------------------------|
---------------------------------------------------|
---------------------------------------------------|
------------------------------5-5-5-12-12-12-----3b|
0-3-0-3-0-3-0-3-3-0-3-0-3-0-3-3-3-3-10-10-10-2-1---|

------------------------------------------------------------------------------|
------------------------------------------------------------------------------|
------------------------------------------------------------------------------|
------------5---3b--------------------------------5---3b---------3b-----------|
000-000-000---3----000-000-000-----3b-000-000-000---3----000-000----000-----3b|
000-000-000--------000-000-000-2-1----000-000-000--------000-000----000-2-1---|

--------------------------------------------------------------------------------|
--------------------------------------------------------------------------------|
--------------------------------------------------------------------------------|
------------5---3b--------------------------------5---3b---------3b-------------|
000-000-000---3----000-000-000-----3b-000-000-000---3----000-000----000-00-00---|
000-000-000--------000-000-000-2-1----000-000-000--------000-000----000-00-00-2b|


-----------------------------------------|
-----------------------------------------|
-----------------------------------------|
-----------------------------------------|
0-00-0-0-00000----0-0-00-0-3b-00-3b-2b---| x4
0-00-0-0-00000-2b-0-0-00-0----00-------2b|

*Solo*
--------------------------------|-----------|
--------------------------------|-----------|
--------------------------------|------*14b-|
--8-10b--12h13-12121212121212-x4|12-12------|
9-------------------------------|-----------|
--------------------------------|-----------|
                     
                                      (Start Tremelo Picking these notes)
----------------------------------------------------------------|
----------------------------------------------------------------|
----------------------------------------------------------------|
13-12121212121212-15-12121212121212-17-17-15-14-15-14-12-11-10-9|
----------------------------------------------------------------|
----------------------------------------------------------------|

                           *Tremelo Pick*                   
------------------|-----------|---------|-----------|17-15-14-12|
------------------|12-17-15-x4|12-17-15b|12-17-15-x4|-----------|
9b-9b-9-7-5-7-5-3b|-----------|---------|-----------|-----------|
------------------|-----------|---------|-----------|-----------|
------------------|-----------|---------|-----------|-----------|
------------------|-----------|---------|-----------|-----------|

-----------------------------------------------------|
12-14-15-17b-17-15-14-12-14-15-17-19b-19-17-15-17-21b|
-----------------------------------------------------|
-----------------------------------------------------|
-----------------------------------------------------|
-----------------------------------------------------|

----------------------------------------|
----------------------------------------|
----------------------------------------|
-------------5---------------------5----|
----------------------------------------|
2b-0-2b-0-2b---2b-0-2b-5b-2b-0-2b----3-0|

----------------------------------------|
----------------------------------------|
----------------------------------------|
-------------7--------------------7-----|
----------------------------------------|
5b-0-5b-0-5b---5b-0-5b-7b-5b-0-5b--5b-3b|

-------------------------------------------------------|
-------------------------------------------------------|
-------------------------------------------------------|
-------------5---------------------5-------------------|
----------------------------------------0-0-0-3--------|
2b-0-2b-0-2b---2b-0-2b-5b-2b-0-2b----3b-0-0-0-3----/12\|

-------------------------------------------|----|
-------------------------------------------|----|
-------------------------------------------|----|
-------------------------------------------|x--x|
0-00-0-0-00000----0-0-00-0-3b-00-3b-2b---x4|x--x|
0-00-0-0-00000-2b-0-0-00-0----00-------2b--|x--x|
Suggest correction
Give kudos to tab author, rate the tab!
1 2 3 4 5
comments
print report bad tab
guest
You may want to rate the tab now too:
select rating
Wanna post a correction for this tab? Suggest correction