Oops, an error
Loading. Please wait.

Rehashed Tab

version 2
version 2

Whole song

Interactive

681 views 1 this week
no commentswrite comment
1 2 3 4 5
please rate
add to favorites
launch autoscroll
font size
0
reset
how to read this tab
guitar tuner
Tab Pro tools
  • play this tab
  • loop segment
  • change instrument
  • show fretboard
  • metronome
×
Best way to learn
"Rehashed"
Autoscroll
slow
fast
+/-
esc
set tempo
stop
Contributor
Difficulty
Tuning
intermediate
D A D G B E
-------------------------------------------------------------------------------
                             Rehashed - A Life Once Lost
-------------------------------------------------------------------------------
Tabbed by: Andrew Skelly
Email:

Tuning: Drop D

e|---------------------------------------------------------------------------|
B|---------------------------------------------------------------------------|
G|----33-----33-----33----------33-----33-----33--------33-----33-----33-----|
D|----22-----22-----22----------22-----22-----22--------22-----22-----22-----|
A|----11-----11-----11-0000-----11-----11-----11-00-----11-----11-----11-000-|
E|000----000----000----0000-000----000----000----00-000----000----000----000-|
  ...    ...    ...    .... ...    ...    ...    .. ...    ...    ...    ...
e|------------------------|--------------------------------------------------|
B|------------------------|--------------------------------------------------|
G|----33-----33-----33----|--------------------------------------------------|
D|----22-----22-----22----|--------------------------------------------------|
A|----11-----11-----11-000|--------------------------------------------------|
E|000----000----000----000|(x2)----------------------------------------------|
  ...    ...    ...    ...
e|---------------------|-------------------|---------------------------------|
B|---------------------|-------------------|---------------------------------|
G|-4----4--------------|-6----6-6-5--------|---------------------------------|
D|-4----4--------------|-6----6-6-5--------|---------------------------------|
A|-222222----1-4-------|-444444-4-3-2-5-1~-|---------------------------------|
E|--------0-1---5~-(x3)|------------2-5-1~-|---------------------------------|
    ....                  ....
e|---------------------------------------------------------------------------|
B|---------------------------------------------------------------------------|
G|---------------------------------------------------------------------------|
D|---------------------------------------------------------------------------|
A|1/5---1/5-1/5---1/6----------------------0123333---------------------------|
E|----0---------0-----1~--5h7-77-5h7-77-1~-0123333---------------------------|
                                           .......
e|---------------------------------------------------------------------------|
B|---------------------------------------------------------------------------|
G|---------------------------------------------------------------------------|
D|--------------------------------------5~-----------------------------------|
A|1/5---1/5-1/5---1/6-------------------6~-0123333---------------------------|
E|----0---------0-----1~--5h7-77-5h7-77----0123333---------------------------|
                                           
e|---------------------------------------------------------------------------|
B|---------------------------------------------------------------------------|
G|---------------------------------------------------------------------------|
D|---------------------------------------------------------------------------|
A|00-00-0000-1-0-1-2------00-00-0000-1-0-5-4----------------1-0-5-4-0-1-2----|
E|00-00-0000-1-0-1-2/17---00-00-0000-1-0-5-4/16--00-00-0000-1-0-5-4-0-1-2----|
  .. .. ....   .          .. .. ....   .         .. .. ....   .     
e|---------------------------------------------------------------------------|
B|---------------------------------------------------------------------------|
G|----------------------6----6-6-5-------------------------------------------|
D|----------------------6----6-6-5-------------------------------------------|
A|00-00-0000-1-0-5-4----444444-4-3-2-5-1~------------------------------------|
E|00-00-0000-1-0-5-4-16/-----------2-5-1~------------------------------------|
  .. .. ....   .         ....
e|---------------------------------------------------------------------------|
B|---------------------------------------------------------------------------|
G|---------------------------------------------------------------------------|
D|---------------------------------------------------------------------------|
A|7-----2--------6-----------------------------------------------------------|
E|--0-3---3~-0-7---7~--(-repeat-third-verse-)--------------------------------|

e|---------------------------------------------------------------------------|
B|---------------------------------------------------------------------------|
G|---------------------------------------------------------------------------|
D|---------------------------------------------------------------------------|
A|00-00-0000-1-0-5-4---------------------------------------------------------|
E|00-00-0000-1-0-5-4-5*--(repeat-begining)-----------------------------------|
  .. .. ....   .
e|---------------------------------------------------------------------------|
B|---------------------------------------------------------------------------|
G|---------------------------------------------------------------------------|
D|---------------------------------------------------------------------------|
comments
We did not receive enough feedback on this tab! Please rate:
print report bad tab
1 2 3 4 5
I want to post or [tab]
guest
You may want to rate the tab now too:
select rating
Please do not post tabs as comments. Select "correction" instead!