Oops, an error
Loading. Please wait.

Vulture Tab

version 4
version 4

Interactive

2,920 views 1 this week
1 commentread comment
1 2 3 4 5
please rate
add to favorites
launch autoscroll
font size
0
reset
how to read this tab
guitar tuner
Tab Pro tools
  • play this tab
  • loop segment
  • change instrument
  • show fretboard
  • metronome
×
Best way to learn
"Vulture"
Autoscroll
slow
fast
+/-
esc
set tempo
stop
Contributor
Difficulty
Tuning
intermediate
D A D G B E
A Life Once Lost - Vulture

Main Riff/Verse
e|-----------------------------|------------------------|
B|-----------------------------|------------------------|
G|-----------------------------|------------------------|
D|-----------------------------|------------------------|
A|-----------------------------|-------------------3*---|
D|-3\2-2\1-1/2-000000000000000-|-3\2-2\1-1-0000000------|
PM             ...............             .......

Verse is the main riff minus the pinch harmonic.

Chorus
Gtr.1
e|----------------------------------|
B|----------------------------------|
G|----------------------------------|
D|----------------------------------|
A|---------3-3-3----------6-6-6-5---|
D|-5b--0-0-------3b-3b-3b-----------|

Gtr.2
e|----------------------------------|
B|----------------------------------|
G|----------------------------------|
D|------------------------5-5-5-4---|
A|---------3-3-3--------------------|
D|-5b--0-0-------3b-3b-3b-----------|

---

Gtr.1
e|----------------------------------|
B|----------------------------------|
G|----------------------------------|
D|---------------4------------------|
A|-------------------------3-5--5b--|
D|-0-0-0-0-0-0-0---0-0-3-5----------|

Gtr.2
e|----------------------------------|
B|----------------------------------|
G|----------------------------------|
D|---------------4------------------|
A|-------------------------3-5--5b--|
D|-0-0-0-0-0-0-0---0-0-3-5----------|

---

Gtr.1
e|----------------------------------|
B|----------------------------------|
G|----------------------------------|
D|---------------4------------------|
A|-------------------------3-5--3b--|
D|-0-0-0-0-0-0-0---0-0-3-5----------|

Gtr.2
e|----------------------------------|
B|----------------------------------|
G|----------------------------------|
D|---------------4--------------2b--|
A|-------------------------3-5------|
D|-0-0-0-0-0-0-0---0-0-3-5----------|

---

Gtr.1
e|----------------------------------|
B|----------------------------------|
G|----------------------------------|
D|---------------4--------------4b--|
A|-------------------------3-5------|
D|-0-0-0-0-0-0-0---0-0-3-5----------|

Gtr.2
e|----------------------------------|
B|----------------------------------|
G|----------------------------------|
D|---------------4------------------|
A|-------------------------3-5--5b--|
D|-0-0-0-0-0-0-0---0-0-3-5----------|

---

Gtr.1
e|----------------------------------|
B|----------------------------------|
G|----------------------------------|
D|-------------5b--------------7b---|
A|----------------------------------|
D|-0-0-0-0-0-0-----0-0-0-0-0-0------|

Gtr.2
e|----------------------------------|
B|----------------------------------|
G|----------------------------------|
D|----------------------------------|
A|-------------6b--------------8b---|
D|-0-0-0-0-0-0-----0-0-0-0-0-0------|

---
Chorus Pt.2

Gtr.1
e|----------------------------------|
B|----------------------------------|
G|----------------------------------|
D|----------------------------------|
A|-------------------------3-5--5b--|
D|-0-0-0-0-0-0-0-0-0-0-3-5----------|

Gtr.2
e|----------------------------------|
B|----------------------------------|
G|----------------------------------|
D|----------------------------------|
A|-------------------------3-5--5b--|
D|-0-0-0-0-0-0-0-0-0-0-3-5----------|

---

Gtr.1
e|----------------------------------|
B|----------------------------------|
G|----------------------------------|
D|----------------------------------|
A|-------------------------3-5--3b--|
D|-0-0-0-0-0-0-0-0-0-0-3-5----------|

Gtr.2
e|----------------------------------|
B|----------------------------------|
G|----------------------------------|
D|------------------------------2b--|
A|-------------------------3-5------|
D|-0-0-0-0-0-0-0-0-0-0-3-5----------|

---

Gtr.1
e|----------------------------------|
B|----------------------------------|
G|----------------------------------|
D|------------------------------4b--|
A|-------------------------3-5------|
D|-0-0-0-0-0-0-0-0-0-0-3-5----------|

Gtr.2
e|----------------------------------|
B|----------------------------------|
G|----------------------------------|
D|----------------------------------|
A|-------------------------3-5--5b--|
D|-0-0-0-0-0-0-0-0-0-0-3-5----------|

---

Gtr.1
e|------------------------------|
B|------------------------------|
G|------------------------------|
D|------------------------------|
A|--------------5b--------------|
D|-0-0-0-0-0-0-----0-0-0-0-0-0--|

Gtr.2
e|------------------------------|
B|------------------------------|
G|------------------------------|
D|------------------------------|
A|-------------5b---------------|
D|-0-0-0-0-0-0----0-0-0-0-0-0---|

Repeat All Above

Bridge
e|----------------------|------------------------|
B|----------------------|------------------------|
G|----------------------|------------------------|
D|----------------------|------------------------| x4
A|----------------------|------------------------|
D|-3\2-2\1-1/2-0-0-0000-|-3\2-2\1-1-0-0-0-0-0000-|
PM             . . ....             . . . . ....

Pre Solo (notes played in quick succession)
e|-------------------------------------------|
B|-------------------------------------------|
G|-------------------------------------------|
D|-------------------------------------------|
A|-------------------------------------------|
D|-2-1-0---2-1-0---2-1-0---2-1-0---2-1-0-----|

Solo (This is pretty rough, but a good base)
e|-----------------------------------------------------------------------|
B|-----------------------------------------------------------------------|
G|-7h8h10h11---7h8h10h11---7h8h10h11---7h8h10h11---7-8-10-11-11-10-7-6---|
D|-----------------------------------------------------------------------|
A|-----------------------------------------------------------------------|
D|-----------------------------------------------------------------------|

e|--------------------------------------------------------------|
B|--------------------------------------------------------------|
G|-11p10p8p7---11p10p8p7p---11p10p8p7---11p10p8p7---11p10p8p7---|
D|--------------------------------------------------------------|
A|--------------------------------------------------------------|
D|--------------------------------------------------------------|

e|-10-------10-----13------13------16----16----16----20b22------| keep hitting the last bend.
B|-13b15----13b15--16b18---16b18---19b21-19b21-19b21------------| 
G|--------------------------------------------------------------|
D|--------------------------------------------------------------|
A|--------------------------------------------------------------|
D|--------------------------------------------------------------|

I couldn't be bothered to work out the next bit note for note, so just play around with these notes.

e.g
e|-14---------------------------|
B|----14-15-16------------------|
G|-------------12-13-14-15-16---|
D|------------------------------|
A|------------------------------|
D|------------------------------|

or the Harmonic Minor which also sounds cool.

e.g
e|-12-13-16----------------------------|
B|----------12-13-15-------------------|
G|-------------------13-14-16----------|
D|----------------------------12-14-15-|
A|-------------------------------------|
D|-------------------------------------|

Solo backing.
(notes played in quick succession)
e|-------------------------------------------|
B|-------------------------------------------|
G|-------------------------------------------|
D|-------------------------------------------| x2
A|-------------------------------------------|
D|-2-1-0---2-1-0---2-1-0---2-1-0---2-1-0-----|

e|------------------------------------------|-------------------------------------|
B|------------------------------------------|-------------------------------------|
G|------------------------------------------|-------------------------------------|
D|------------------------------------------|-------------------------------------| x2
A|-------------0---------------0---0--0--0--|-------------0---1---------------3*--|
D|-0-0-5b--0-0-0---0-0-5b--0-0-0---0--0--0--|-0-0-5b--0-0-0-----2b--0-1-4-2-3-----|
PM . .     . .     . .     . .     .  .  .    . .     . . 

Breakdown.
e|-------------------------------------|-----------------------------------|
B|-------------------------------------|-----------------------------------|
G|-------------------------------------|-----------------------------------|
D|-------------------------------------|-----------------------------------|
A|--------------0----------------------|--------------1---------------3*---|
D|-00000000-0-0-0----00000000-00000000-|-00000000-0-0---2b--0-1-4-2-3------|
PM ........ . .      ........ ........   ........ . .

Back to Chorus

Outro
Bridge
e|----------------------|------------------------|
B|----------------------|------------------------|
G|----------------------|------------------------|
D|----------------------|------------------------| repeat as neccessary
A|----------------------|------------------------|
D|-3\2-2\1-1/2-0-0-0000-|-3\2-2\1-1-0-0-0-0-0000-|
PM             . . ....             . . . . ....
comments
We did not receive enough feedback on this tab! Please rate:
print report bad tab
1 2 3 4 5
1 comment total.
0 reply
AllBodies wrote on February 19 2009, 01:15 pm

sounds perfect to me!

I want to post or [tab]
guest
You may want to rate the tab now too:
select rating
Please do not post tabs as comments. Select "correction" instead!