Oops, an error
Loading. Please wait.

3 Libras Bass Tab

version 3
version 3

Whole song

Interactive

2,672 views 13 this week
no commentswrite comment
1 2 3 4 5
please rate
add to favorites
launch autoscroll
font size
0
reset
guitar tuner
Tab Pro tools
  • play this tab
  • loop segment
  • change instrument
  • show fretboard
  • metronome
×
Best way to learn
"3 Libras"
Autoscroll
slow
fast
+/-
esc
set tempo
stop
-----------------------------------------------------------------------------
			   3 Libras - A Perfect circle
-----------------------------------------------------------------------------

Tabbed By : Stephen Healy
e-mail: steeeeeve13@hotmail.com

Tuning: Standard EADG

OK im aware that you need to be in Dropped D if you want to be 100% like how Paz plays
it but this tab here will be the best you can get in Standard.

Verse
G|--------------------------------------------------------------------------|
D|--------------------------------------------------------------------------|
A|-0-0-----2-2-----0-0-----2-2-----0-0-----2-2-----0-0-----2-2-----4-4------|
E|-----0-0-----3-3-----0-0-----3-3-----0-0-----3-3-----0-0-----3-3----------|

Bridge
G|--------------------------------------------------------------------------|
D|--------------------------------------------------------------------------|
A|-0-000-0-000-0-000-0-2-2-4-444-4-444-4-444-4-4-5h0------------------------|
E|--------------------------------------------------------------------------|

G|--------------------------------------------------------------------------|
D|--------------------------------------------------------------------------|
A|-0-000-0-000-0-000-0-2-2-4-444-4-444-4-444-5------------------------------|
E|--------------------------------------------------------------------------|

Verse
G|--------------------------------------------------------------------------|
D|--------------------------------------------------------------------------|
A|-0-0-----2-2-----0-0-----2-2-----0-0-----2-2-----0-0-----2-2-----4-4------|
E|-----0-0-----3-3-----0-0-----3-3-----0-0-----3-3-----0-0-----3-3----------|

Bridge
G|--------------------------------------------------------------------------|
D|--------------------------------------------------------------------------|
A|-0-000-0-000-0-000-0-2-2-4-444-4-444-4-444-4-4-5h0------------------------|
E|--------------------------------------------------------------------------|

G|--------------------------------------------------------------------------|
D|--------------------------------------------------------------------------|
A|-0-000-0-000-0-000-0-2-2-4-444-4-444-4-444-5-5-5-5-5-5-5------------------|
E|--------------------------------------------------------------------------|

Chorus(?)
G|--------------------------------------------------------------------------|
D|--------------------------------------------------------------------------|
A|-------------3-333-------------------3-333-------------------3-333--------|
E|-0-000-0-000-------1-111-0-000-0-000-------1-111-0-000-0-000-------1-111--|

G|--------------------------------------------------------------------------|
D|--------------------------------------------------------------------------|
A|-------------3-333-------0------------------------------------------------|
E|-0-000-0-000-------1-111--------------------------------------------------|

Break
G|--------------------------------------------------------------------------|
D|--------------------------------------------------------------------------|
A|-0--------4---0------7---4---0-0-0-0-0-0-4-4-0-0-0-0-7-7-4-4-5-5-5-5-5-5-5|
E|--------------------------------------------------------------------------|

Outro
G|--------------------------------------------------------------------------|
D|--------------------------------------------------------------------------|
A|-0-000-0-000-0-000-0-2-2-4-444-4-444-4-444-4-4-5h0------------------------|
E|--------------------------------------------------------------------------|

G|--------------------------------------------------------------------------|
D|--------------------------------------------------------------------------|
A|-0-000-0-000-0-000-0-2-2-4-444-4-444-4-444-4-4-5h0------------------------|
E|--------------------------------------------------------------------------|

G|--------------------------------------------------------------------------|
D|--------------------------------------------------------------------------|
A|-0-000-0-000-0-000-0-2-2-4-444-4-444-4-444-4-4-5h0------------------------|
E|--------------------------------------------------------------------------|

G|--------------------------------------------------------------------------|
D|--------------------------------------------------------------------------|
A|-0-000-0-000-0-000-0-2-2-4-444-4-444-4-444-4-4-5--------------------------|
E|--------------------------------------------------------------------------|

| /  slide up
| \  slide down
| h  hammer-on
| p  pull-off
| ~  vibrato
| +  harmonic
| x  Mute note
=============================================================================
comments
We did not receive enough feedback on this tab! Please rate:
print report bad tab
1 2 3 4 5
I want to post or [tab]
guest
You may want to rate the tab now too:
select rating
Please do not post tabs as comments. Select "correction" instead!