Oops, an error
Loading. Please wait.

3 Libras Tab

version 5
version 5

Interactive

Video

4,775 views 1 this week
no commentswrite comment
1 2 3 4 5
worth learning
x 3
add to favorites
launch autoscroll
font size
0
reset
how to read this tab
guitar tuner
Autoscroll
slow
fast
+/-
esc
set tempo
stop
Help us to improve Ultimate-Guitar.com Take our survey!
×
-------------------------------------------------------------------------------
			     3 Libras - A Perfect Circle
-------------------------------------------------------------------------------

Tabbed by: 	Jordan Walsh
Email:		jordanwalsh23@hotmail.com

| /  slide up
| \  slide down
| h  hammer-on
| p  pull-off
| ~  vibrato
| +  harmonic
| x  Mute note


Tuning: F# tuning, (i know it's wierd, but just try it, it sounds perfect.)
	To do it, just tune the bottom E on the third fret rather than the 
	fifth.

	Just keep the your finger formation the same and slide it up and 
        down the fret board.

	This is all i managed to pick out. If someone else can get the rest
        of the song using this tuning, let me know.

e |-----------------------------------------------|
B |-----------------------------------------------|
G |-4-----4-----4-----4-----4-----4-----8-----8---|
D |---2-----------2-----------2-----------6-------|
A |-----------------------------------------------|
F#|-3---3-------3---3-------3---3-------7---7-----|

e |-------------------------------------------------|
B |-------------------------------------------------|
G |-4-----4-----4-----4-----12-------12-----8-----8-|	Repeat once from the 
D |---2-----------2------------10-------------6-----|	start.
A |-------------------------------------------------|	
F#|-3---3-------3---3-------11-----11-------7---7---|	


e |----------------------------------|
B |----------------------------------|
G |-9-----9-----9-----9-----9-----9--|
D |---7-----------7-----------7------|
A |----------------------------------|
F#|-8---8-------8---8-------8---8----|	

Then finish the intro with a slow strum.

e |--0----|
B |--0----|
G |--9----|
D |--7----|
A |--x----|
F#|--8----|

  Verse 

e |-----------------------------------------------|
B |-----------------------------------------------|
G |-4-----4-----4-----4-----6-----6-----7-----7---|	Repeat 3x
D |---2-----------2-----------4-----------5-------|
A |-----------------------------------------------|
F#|-3---3-------3---3-------5---5-------6---6-----|

  Then play once

e |-----------|
B |-----------|
G |--8-----8--|	Repeat entire verse once.
D |----6------|
A |-----------|
F#|--7---7----|

  Repeat intro after Maynard says:

  "When you don't.....See.....Me....."
 
===============================================================================
Suggest correction
What's this?
You can suggest a correction to this tab. Community and Mods will review your correction and vote to approve or reject it.
comments
We did not receive enough feedback on this tab! Please rate:
print report bad tab
1 2 3 4 5
guest
You may want to rate the tab now too:
select rating
Please do not post tabs as comments. Select "correction" instead!