Oops, an error
Loading. Please wait.

Gravity Bass Tab

version 2
version 2

Whole song

Interactive

1,604 views 9 this week
no commentswrite comment
1 2 3 4 5
2 more votes to show rating
add to favorites
launch autoscroll
font size
0
reset
guitar tuner
Autoscroll
slow
fast
+/-
esc
set tempo
stop
Help us to improve Ultimate-Guitar.com Take our survey!
×
Author
A Perfect Circle - Gravity

Tabbed by: Eric A.

Tuning: C# F# B E (Db Gb B E)

Legend
 
p  - pull off
\\ - slide down
// - slide up
~~ - vibrato
b  - Bend
 

Intro:

E------------------------------------|
B------------------------------------|
F#-2//-7-7--5-7---7-7---5-7-----5----|
C#--------------5-----------5-7------|


Play 3x
E--------------------------------|
B--------------------------------|
F#-7-7--5-7---7-7---5-7-----5----|
C#----------5-----------5-7------|



Verse:

Play 4x
E--------------------------------|
B--------------------------------|
F#-7-7--5-7---7-7---5-7-----5----|
C#----------5-----------5-7------|




E--------------------------------|
B-------9-7-9------9-7-9-7-------|
F#-7-7--------7-7----------0-----|
C#-------------------------------|



E--------------------------------|
B--------------------------------|
F#-7-7--5-7---7-7---5-7-----5----|
C#----------5-----------5-7------|



E--------------------------------|
B-------9-7-9------9-7-9-7-------|
F#-7-7--------7-7----------0-----|
C#-------------------------------|



E--------------------------------|
B--------------------------------|
F#-7-7--5-7---7-7---5-7-----5----|
C#----------5-----------5-7------|



Chorus:

E--------------------------------------------------------|
B--------------------------------------------------------|
F#-7--7--7--7--7--10--10--10--10-10--12--12--12--12--12--|
C#-------------------------------------------------------|



E--------------------------------|
B--------------------------------|
F#-7-7--5-7---7-7---5-7-----5----|
C#----------5-----------5-7------|



E------------------------------------------------------------|
B------------------------------------------------------------|
F#-7--7--7--7--7--5--5--5--5--5------------------------------|
C#-------------------------------3--3--3--3--3--5--5--5--5-5-|



Interlude:

Play 4x
E--------------------------------|
B--------------------------------|
F#-7-7--5-7---7-7---5-7-----5----|
C#----------5-----------5-7------|



Verse 2:

Play 8x
E--------------------------------|
B--------------------------------|
F#-7-7--5-7---7-7---5-7-----5----|
C#----------5-----------5-7------|



Chorus 2:

E--------------------------------|
B-------9-7-9------9-7-9-7-------|
F#-7-7--------7-7----------0-----|
C#-------------------------------|



E-------------------------------------|
B--------12-10-12-------12-10-12-10---|
F#-10-10----------10-10-------------0-|
C#------------------------------------|



E-------------------------------------|
B--------14-12-14-------14-12-14-12---|
F#-12-12----------12-12-------------0-|
C#------------------------------------|



E--------------------------------|
B--------------------------------|
F#-7-7--5-7---7-7---5-7-----5----|
C#----------5-----------5-7------|



E--------------------------------|
B-------9-7-9------9-7-9-7-------|
F#-7-7--------7-7----------0-----|
C#-------------------------------|



E--------------------------------|
B-------7-5-7------7-5-7-5-------|
F#-5-5--------5-5----------0-----|
C#-------------------------------|



E--------------------------------|
B--------------------------------|
F#-------------------------------|
C#-5-5-3-5-0-5-5-3-5-0-3-5-------|



E--------------------------------|
B-------9-7-9------9-7-9-7-------|
F#-7-7--------7-7----------0-----|
C#-------------------------------|



E-------------------------------------|
B--------12-10-12-------12-10-12-10---|
F#-10-10----------10-10-------------0-|
C#------------------------------------|



E-------------------------------------|
B--------14-12-14-------14-12-14-12---|
F#-12-12----------12-12-------------0-|
C#------------------------------------|



E--------------------------------|
B--------------------------------|
F#-7-7--5-7---7-7---5-7-----5----|
C#----------5-----------5-7------|



E--------------------------------|
B-------9-7-9------9-7-9-7-------|
F#-7-7--------7-7----------0-----|
C#-------------------------------|



E--------------------------------|
B-------7-5-7------7-5-7-5-------|
F#-5-5--------5-5----------0-----|
C#-------------------------------|



E--------------------------------|
B--------------------------------|
F#-------------------------------|
C#-5-5-3-5-0-5-5-3-5-0-3-5-------|



E--------------------------------|
B--------------------------------|
F#-------------------------------|
C#-8---8---8-8---8---8-8-8-8-----|



E--------------------------------------------|
B--------------------------------------------|
F#-12-12-12-10-10-10-9-9-9-10-10-10-9h10p9-5-|
C#-------------------------------------------|



Bridge:

Play 3x
E--------------------------------|
B--------------------------------|
F#-7-7--5-7---7-7---5-7-----5----|
C#----------5-----------5-7------|


Tricky, Listen to song for timing 
E-------------------------|
B-------------------------|
F#-7-7--5-7---7-7---5-5---|
C#----------5-------------|



E----------------------------|
B----------------------------|
F#-3--5--7--9-10-9--7-7-5-5/-|
C#---------------------------|



E--------------------------------------|
B--------------------------------------|
F#-10--12--14-15-14-12-14-12-7-7-5-5\--|
C#-------------------------------------|



E----------------------------|
B----------------------------|
F#-3--5--7--9-10-9------5-5/-|
C#------------------3-3------|



E----------------------------|
B----------------------------|
F#-3--3--3--3--2----/8b------|
C#---------------------------|



Interlude:

Play 7X
E----------------------------|
B----------------------------|
F#---------------------------|
C#-0--3-0-0--3-0-0--1--------|



E----------------------------|
B----------------------------|
F#-----------------7x-7x-----|
C#-0--3-0-0--3-0-------------|


Ending Chorus:


E--------------------------------------------------------------|
B--------------------------------------------------------------|
F#-7--7-7---7-7---7-7-7-7-7-7-7---5--5-5---5-5---5-5-5-5-5-5-5-|
C#-------------------------------------------------------------|



E--------------------------------------------------------------|
B--------------------------------------------------------------|
F#-------------------------------------------------------------|
C#-3---3-3---3-3---3-3-3-3-3-3-3---5---5-5-5---5-5-5-5-5-5\3-3-|



E----------------------------------------------------------------------------|
B----------------------------------------------------------------------------|
F#-7-7--7-7--9-9--10-10-/12-12-12-12-12--5-5--7-7--9-9--10-10-12-12-12-12-12-|
C#---------------------------------------------------------------------------|


E----------------------------------|
B----------------------------------|
F#---------------------------------|
C#-5-5--5-5--5-5--5-5-5-5-5-5-5-8b-|



Outro:

Again tricky, Listen for timing
E--------------------------------------------|
B--------------------------------------------|
F#-5/12---12\3---3/12---12\3---3/12----12/15-|
C#-------------------------------------------|


Les Pauls and ivory bathrooms. Good times.
-E-mail me
Suggest correction
Give kudos to tab author, rate the tab!
1 2 3 4 5
comments
print report bad tab
guest
You may want to rate the tab now too:
select rating
Wanna post a correction for this tab? Suggest correction