Oops, an error
Loading. Please wait.

Judith Bass Tab

version 3
version 3

Whole song

Interactive

25,992 views 96 this week
no commentswrite comment
1 2 3 4 5
x 12
add to favorites
launch autoscroll
font size
0
reset
guitar tuner
Autoscroll
slow
fast
+/-
esc
set tempo
stop
Help us to improve Ultimate-Guitar.com Take our survey!
×
[Verse 1]
(0:01)
E |------------------------------------------------|
B |------------------------------------------------| (x2)
F#|5h7-7-7---7-5h7h8p7p5h7-5h7-7-7-7-7-------------|
C#|------------------------------------3---3---3---|

[Verse 2] 
(0:10)
E |------------------------------------------------|
B |------------------------------------------------| (x2)
F#|5h7-7-7-----5h7h8p7p5h7-5h7-7-7-7-7-------------|
C#|--------0-0-------------------------3---3---3---|

[Verse 1]
(0:20)
E |------------------------------------------------|
B |------------------------------------------------| (x2)
F#|5h7-7-7---7-5h7h8p7p5h7-5h7-7-7-7-7-------------|
C#|------------------------------------3---3---3---|

[Chorus] 
(1:02)
E |------------------------------------------------|
B |------------------------------------------------|
F#|5h7-------7-5h7h8p7p5h7-5h7---------------------|
C#|----0-0---------------------0-0-0-0-3---3---3---|

E |------------------------------------------------|
B |------------------------------------5---5---5---|
F#|5h7-7-----7-5h7h8p7p5h7-5h7-7-7-7-7-------------|
C#|------0-----------------------------------------|
 
E |------------------------------------------------|
B |------------------------------------------------|
F#|5h7-7-----7-5h7h8p7p5h7-5h7---------------------|
C#|------0---------------------0-0-0-0-3---3---3---|

E |------------------------------------------------|
B |------------------------------------------------|
F#|5h7-7-----7-5h7h8p7p5h7-5h7---------------------|
C#|------0---------------------0-0-0-0-3---3---3---|

[Bridge]
(1:20)
E |------------------------------------------------|
B |------------------------------------------------| (x2)
F#|3-3-3-3-3-3-3-3-3-3-3-3-0-0-0-0-0-0-0-0-0-0-0-0-|
C#|------------------------------------------------|

[Post-bridge] 
(1:28)
E |------------------------------------------------|
B |------------------------------------------------|
F#|3-3-3-3-3-3-3-5-5-5-5-5-------------------------|
C#|------------------------3-3-3-3-3-3-3-3-3-3-3-3-|

[Verse 3] (1:37)                   [Verse 4] (1:48)
E |------------------------|       E |------------------------|
B |------------------------| (x5)  B |------------------------|
F#|5h7p5---5---7-7*--7*----|       F#|5h7p5-------------------|
C#|------7---7-----------7-|       C#|------7-5-3-0-0*--0*--0-|

[Guitar Solo] 
(1:50)
E |------------------------------------------------|
B |------------------------------------------------|
F#|5~----------\-----------\-----------\-----------|
C#|------------------------------------------------|

[Verse 5]
(1:59)                            [Verse 6] (2:06)
E |------------------------|     E |------------------------|
B |------------------------| (x3)B |------------------------|
F#|------------5-7-5---5---|     F#|5-5-5-5-5-7-------------|
C#|0-0*--0*--0-------7---7-|     C#|------------5-5-5-5-5-7-|

[Chorus] 
(2:08)
E |------------------------------------------------|
B |------------------------------------------------|
F#|5h7-------7-5h7h8p7p5h7-5h7---------------------|
C#|----0-0---------------------0-0-0-0-3---3---3---|

E |------------------------------------------------|
B |------------------------------------5---5---5---|
F#|5h7-7-----7-5h7h8p7p5h7-5h7-7-7-7-7-------------|
C#|------0-----------------------------------------|
 
E |------------------------------------------------|
B |------------------------------------------------|
F#|5h7-7-----7-5h7h8p7p5h7-5h7---------------------|
C#|------0---------------------0-0-0-0-3---3---3---|

E |------------------------------------------------|
B |------------------------------------------------|
F#|5h7-7-----7-5h7h8p7p5h7-5h7---------------------|
C#|------0---------------------0-0-0-0-3---3---3---|

[Verse 1]
(2:25)
E |------------------------------------------------|
B |------------------------------------------------| (x4)
F#|5h7-7-7---7-5h7h8p7p5h7-5h7-7-7-7-7-------------|
C#|------------------------------------3---3---3---|

[Bridge]
(2:43)
E |------------------------------------------------|
B |------------------------------------------------| (x2)
F#|3-3-3-3-3-3-3-3-3-3-3-3-0-0-0-0-0-0-0-0-0-0-0-0-|
C#|------------------------------------------------|

[Post-bridge] 
(2:51)
E |------------------------------------------------|
B |------------------------------------------------|
F#|3-3-3-3-3-3-3-5-5-5-5-5-------------------------|
C#|------------------------3-3-3-3-3-3-3-3-3-3-3-3-|

[Verse 7]
(2:56)
E |------------------------------------------------|
B |------------------------------------------------| 
F#|5h7-7-7-----5h7-7-7-----5h7-7-7-----5h7-7-7-0--/|
C#|--------0-0---------0-0---------0-0-------------|

[Bridge]
(3:00)
E |------------------------------------------------|
B |------------------------------------------------| (x2)
F#|3-3-3-3-3-3-3-3-3-3-3-3-0-0-0-0-0-0-0-0-0-0-0-0-|
C#|------------------------------------------------|

[Post-bridge] 
(3:09)
E |------------------------------------------------|
B |------------------------------------------------|
F#|3-3-3-3-3-3-3-5-5-5-5-5-------------------------|
C#|------------------------3-3-3-3-3-3-3-3-3-3-3-3-|

[Verse 7]
(3:13)
E |------------------------------------------------|
B |------------------------------------------------| 
F#|5h7-7-7-----5h7-7-7-----5h7-7-7-----5h7-7-7-0--/|
C#|--------0-0---------0-0---------0-0-------------|

[Bridge]
(3:18)
E |------------------------------------------------|
B |------------------------------------------------| (x2)
F#|3-3-3-3-3-3-3-3-3-3-3-3-0-0-0-0-0-0-0-0-0-0-0-0-|
C#|------------------------------------------------|

[Post-bridge] 
(3:26)
E |------------------------------------------------|
B |------------------------------------------------|
F#|3-3-3-3-3-3-3-5-5-5-5-5-------------------------|
C#|------------------------3-3-3-3-3-3-3-3-3-3-3-3-|

[Verse 8]
(3:31)
E |------------------------------------------------|
B |------------------------------------------------| (x3)
F#|5h7-7-7-----5h7-7-7-----5h7-7-7-----5h7-7-7-----|
C#|--------0-0---------0-0---------0-0---------0-0-|

[Outro] 
(3:44)
E |------------------------------------------------|
B |------------------------------------------------| 
F#|5h7-7-7-----5h7-7-7-----7-----------------------|
C#|--------0-0---------0-0-----0---0---0~----------|


************************************

| h  Hammer-on
| p  Pull-off
| *  Natural harmonic
| \  Slide down
| ~  Vibrato
| /  Slide up
    
************************************
Suggest correction
comments
print report bad tab
guest
You may want to rate the tab now too:
select rating
Wanna post a correction for this tab? Suggest correction