Oops, an error
Loading. Please wait.

Judith Bass Tab

version 3
version 3

Whole song

Interactive

23,985 views 81 this week
no commentswrite comment
1 2 3 4 5
excellent!
x 10
add to favorites
launch autoscroll
font size
0
reset
guitar tuner
Tab Pro tools
  • play this tab
  • loop segment
  • change instrument
  • show fretboard
  • metronome
×
Best way to learn
"Judith"
Autoscroll
slow
fast
+/-
esc
set tempo
stop
Tuning: 3 half-steps down - C#, F#, B, E

------------= Key =------------
h  hammer on        p  pull off
~  let ring         *  stop string
\  slide down       /  slide up

This song is supposed to be picked, but it's okay to
use your fingers...Also all the variations make it a
bit hard to learn, but it still sounds okay if you
just make stuff up or use the same riff over and over.

Verse I (0:01)
E |------------------------------------------------|
B |------------------------------------------------| x2
F#|5h7-7-7---7-5h7h8p7p5h7-5h7-7-7-7-7-------------|
C#|------------------------------------3---3---3---|

Verse II (0:10)
E |------------------------------------------------|
B |------------------------------------------------| x2
F#|5h7-7-7-----5h7h8p7p5h7-5h7-7-7-7-7-------------|
C#|--------0-0-------------------------3---3---3---|

Rest (0:19)
Verse I (0:27) x8

Chorus (1:02)
E |------------------------------------------------|
B |------------------------------------------------|
F#|5h7-------7-5h7h8p7p5h7-5h7---------------------|
C#|----0-0---------------------0-0-0-0-3---3---3---|
  |                                                |
E |------------------------------------------------|
B |------------------------------------5---5---5---|
F#|5h7-7-----7-5h7h8p7p5h7-5h7-7-7-7-7-------------|
C#|------0-----------------------------------------|
  |                                                | x1
E |------------------------------------------------|
B |------------------------------------------------|
F#|5h7-7-----7-5h7h8p7p5h7-5h7---------------------|
C#|------0---------------------0-0-0-0-3---3---3---|
  |                                                |
E |------------------------------------------------|
B |------------------------------------------------|
F#|5h7-7-----7-5h7h8p7p5h7-5h7---------------------|
C#|------0---------------------0-0-0-0-3---3---3---|

Bridge (1:20)
E |------------------------------------------------|
B |------------------------------------------------| x2
F#|3-3-3-3-3-3-3-3-3-3-3-3-0-0-0-0-0-0-0-0-0-0-0-0-|
C#|------------------------------------------------|

Postbridge (1:28)
E |------------------------------------------------|
B |------------------------------------------------| x1
F#|3-3-3-3-3-3-3-5-5-5-5-5-------------------------|
C#|------------------------3-3-3-3-3-3-3-3-3-3-3-3-|

Verse II (1:33) x1

Verse III (1:37)                 Verse IV (1:48)
E |------------------------|     E |------------------------|
B |------------------------| x5  B |------------------------| x1
F#|5h7p5---5---7-7*--7*----|     F#|5h7p5-------------------|
C#|------7---7-----------7-|     C#|------7-5-3-0-0*--0*--0-|

Guitar Solo (1:50)
E |------------------------------------------------|
B |------------------------------------------------| x1
F#|5~----------\-----------\-----------\-----------|
C#|------------------------------------------------|

Verse V (1:59)                   Verse VI (2:06)
E |------------------------|     E |------------------------|
B |------------------------| x3  B |------------------------| x1
F#|------------5-7-5---5---|     F#|5-5-5-5-5-7-------------|
C#|0-0*--0*--0-------7---7-|     C#|------------5-5-5-5-5-7-|

Chorus (2:08) x1
Verse I (2:25) x4
Bridge (2:43) x2
Postbridge (2:51) x1

Verse VII (2:56)
E |------------------------------------------------|
B |------------------------------------------------| x1
F#|5h7-7-7-----5h7-7-7-----5h7-7-7-----5h7-7-7-0--/|
C#|--------0-0---------0-0---------0-0-------------|

Bridge (3:00) x2
Postbridge (3:09) x1
Verse VII (3:13) x1
Bridge (3:18) x2
Postbridge (3:26) x1

Verse VIII (3:31)
E |------------------------------------------------|
B |------------------------------------------------| x3
F#|5h7-7-7-----5h7-7-7-----5h7-7-7-----5h7-7-7-----|
C#|--------0-0---------0-0---------0-0---------0-0-|

Outro (3:44)
E |------------------------------------------------|
B |------------------------------------------------| x1
F#|5h7-7-7-----5h7-7-7-----7-----------------------|
C#|--------0-0---------0-0-----0---0---0~----------|
comments
print report bad tab
I want to post or [tab]
guest
You may want to rate the tab now too:
select rating
Please do not post tabs as comments. Select "correction" instead!