Oops, an error
Loading. Please wait.

Mer De Noms Tab

9,076 views 9 this week
2 commentsread comments
1 2 3 4 5
worth learning
x 10
add to favorites
launch autoscroll
font size
0
reset
how to read this tab
guitar tuner
Autoscroll
slow
fast
+/-
esc
set tempo
stop
Help us to improve Ultimate-Guitar.com Take our survey!
×
Author
Mikhailo 36,032
Band  : A Perfect Circle
Album : Mer de Noms
Added By Mikhailo

Hollow 
Magdalena
Rose 
Judith 
Orestes 
Three Libras 
Sleeping Beauty 
Thomas 
Renholder 
Thinking of You 
Brena 
Over 

All songs "Dropped D" 
THEN HALF STEP DOWN C# 


A PERFECT CIRCLE
HOLLOW 
Tabbed by jason babin
 
e------------------------------------------------| 
B------------------------------------------------| 
G------------------------------------------------| 
D--7-/-9--9--7--7--7--x-x-2--2--x--x--0----------| 
A--7-/-9--9--7--7--7--x-x-2--2--x--x--0----------| 
D--7-/-9--9--7--7--7--x-x-2--2--x--x--0----------| 
 
 
LEAD OVER INTRO 
 
e-----------------------------------| 
B-----------------------------------| 
G----11------14--14-17---11---7-----| 
D-----------------------------------| 
A----9-------12--12/15---9----5-----| 
D-----------------------------------| 
 
 
 
INTRO VERSE 1 
 
	*harmonics with pitch shift 
e-------------------------------------------| 
B---------*9------------*9------------------| 
G--------*9-*9---------*9-*9----------------| 
D--9----*9---*9---9---*9---*9---------------| 
A--9---*9-----*9--9--*9-----*9--------------| 
D--9--------------9-------------------------| 
 
 
 
 
 
	Chorus 
 
 
e-----------------------| 
B-----------------------| 
G-----------------------| 
D--5--4--0-----7-7-7----| 
A--5--4--0-----7-7-7----| 
D--5--4--0-----7-7-7----| 
 
 
Chorus 
LEAD (roughly) 
 
part 1 
 
e--14--17--14-----14---------------------| 
B--------------15-----15--12--13---------| 
G----------------------------------14----| 
D----------------------------------------| 
A----------------------------------------| 
D----------------------------------------| 
 
part 2 
 
 
e------------------------------------------------| 
B-------------10--8--7---------7---------10---8--| 
G---6--7--9---------------7----6---7--9----------| 
D------------------------------------------------| 
A------------------------------------------------| 
D------------------------------------------------| 
 
 
	[Bridge]  
 
clean	(bass plays this part, but guitar can double like this) 
 
e------------------------------| 
B--3--/--5--\--3---3---3---3---| 
G--2--/--4--\--2---2---2---x---| 
D--0-----0-----0---0---2---2---| 
A--0-----0-----0---0---0---2---| 
D--------------------------2---| 
 
Gtr lead in 
 
e------------------------------------| 
B--10-12-14----17--17--19--12--------| 
G------------------------------------| 
D--7--9--11----14--14--16--9---------| 
A------------------------------------| 
D------------------------------------| 
 
 
...out of bridge 
 
 
 
e---------------------| 
B---------------------| 
G---------------------| 
D---9--7---2---0------| 
A---9--7---2---0------| 
D---9--7---2---0------| 
               
 
 
 
 
 
 
 
	[Bulid-up] 
 
 
p.m............... 
 
E---------------------------| 
B---------------------------| 
G-----4-----6----7---12-----| 
D-----4-----6----7---12-----| Repeat 
A---0^2-----4----5---10-----| 
D---------------------------| 
 
	[Gtr 2 lead] 
 
 
e--------------------------------| 
B--------------------------------| 
G--16--16--14--9--11-7--6--------| 
D--------------------------------| 
A--14--14--12--7--9--5--4--------| 
D--------------------------------| 
 
 
 
 
 
repeat chorus...... 
 


A PERFECT CIRCLE
ROSE		     
From the album 'Mer de noms' 
______________________________________________________________________________			     
 
All songs "Dropped D" 
 
Tabbed by jason babin
               
 
 
PICK THROUGH CHORD: 
 
E	0 
B	3 
G	4 
D	2 
A	3 
 
 
e------0----------------------------| 
B------3-3--------------------------| 
G---4----4--------------------------| 
D---2-------------------------------| 
A-3---------------------------------| 
D-----------------------------------| 
 
 
5-STRING 
BASS WITH DIST 
 
	*harm 
G-----------------------------------| 
D--------------------------*5-------| 
A-----*5---(REPEAT)-----*5----------| 
D--3--------------------------------| 
B-----------------------------------| 
 
 
 
GUITAR - REPEAT INTRO 
 
 
 
5-STRING 
BASS WITH DIST. 
G------------------------------------| 
D------------------------------------| 
A-----------------------C------------| 
D--2--5--2--7--2--5--2---------------| 
B-----------------------C------------| 
 
 
 
 
 
 
	[SOLO] 
 
e-------------------------------------| 
B--12---12--13--/-(20)--12--10--10----| 
G-------------------------------------| 
D-------------------------------------|REPEAT 
A-------------------------------------| 
D-------------------------------------| 
 
e---12--10--12--10--12--13--12--10-------------| 
B-----------------------------------13--12-----| 
G----------------------------------------------| 
D----------------------------------------------| 
A----------------------------------------------| 
D----------------------------------------------| 
 
 
	[BRIDGE] 
 
WHEN PUSH COMES TO PULL COMES TO... 
PM........... 
 
e----------------------------------------------| 
B----------------------------------------------| 
G--9---12---9---14---9--12--9--5---------------| 
D--9---12---9---14---9--12--9--5---------------|REPEAT 
A--7---10---7---12---7--10--7--3---------------| 
D----------------------------------------------| 
 
 
 
I ROSE I ROARD ALOUD HERE I WILL I AM 
 
e-------------------------------------10------| 
B--10---10---10---12---10---10---12-----------| 
G---------------------------------------------| 
D---------------------------------------------| 
A---------------------------------------------| 
D---------------------------------------------| 
 
 
 
 
 
 
 
I AM I WILL SO NO LONGER...... 
 
e-------------------------------------------| 
B-------------------------------------------| 
G-------------------------------------------| 
D--2---5--2--7---2--5--2--3-----------------| 
A--2---5--2--7---2--5--2--3-----------------| 
D--2---5--2--7---2--5--2--3-----------------| 
 
END SONG ON	3  
		3 
		3 
               



A PERFECT CIRCLE
ORESTES		     
From the album 'Mer de noms ' 
______________________________________________________________________________			     
 
All songs "Dropped D" 
 
Tabbed by jason babin
               
              
 
e-----------------------------| 
B--------------6-------6------| 
G----5-----5------7------7----| 
D--7---7-7---7------7------7--| 
A-----------------------------| 
D-----------------------------| 
 
got a....clear away 
 
e-----------------------------| 
B-----------------------------| 
G---5----5---2----2-----------| 
D-7----7--------3-----3-------| 
A-----------------------3-----| 
D-----------------------------| 
               
 
lead over keyboards 
 
e---------------------------------------| 
B--14--13--11-10--13-\--8-8-8--6-6-6----| 
G-------------------------7------7------| 
D---------------------------------------| 
A---------------------------------------| 
D---------------------------------------| 
 
one more....give me one more.... 
 
e-----------------------------------------------------| 
B-----------------------------------------------------| 
G---7--9--10--12--7--9--10--12--9--9--10--10----------| 
D---0--0--0---0---0--0---0---0--0--0---0---0----------| 
A-----------------------------------------------------| 
D-----------------------------------------------------| 
 
 
...and i dont want to feel this... 
 
e------------------------------------------| 
B------------------------------------------| 
G--10--12--7--5---10--12^------------------| 
D---0---0--0--0----0---0-------------------| 
A------------------------------------------| 
D------------------------------------------| 
 
 
hostility. 
 
e------------------------------------------| 
B------------------------------------------| 
G--------7---------------------------------| 
D--5-/-7-7--7-\-3-----------------5--------| 
A-----------------5--5-/-7-7-8--8---8--7---| 
D------------------------------------------| 
 
 
 
 
solo (after intro repeat) 
 
e------------------------------------------| 
B-13---15--10-10--11--10--11-10--13--15^---| 
G-12---14--9---9---9---9---9--9--12--14^---| 
D------------------------------------------| 
A------------------------------------------| 
D------------------------------------------| 
 
e------------------------------------------| 
B-13---15--10-10--11--10--11-10---8~-------| 
G-12---14--9---9---9---9---9--9---7~-------| 
D------------------------------------------| 
A------------------------------------------| 
D------------------------------------------| 
               
 
e------------------------------------------| 
B------------------------------------------| 
G--10--12--7--5---10--12^------------------| 
D---0---0--0--0----0---0-------------------| 
A------------------------------------------| 
D------------------------------------------| 
 
 
e------------------------------------------| 
B------------------------------------------| 
G------------------------------------------| 
D-0--2--3----------------------------------| 
A-0--2--3----------------------------------| 
D-0--2--3----------------------------------| 
 
 
 
 
 
e-----------------------| 
B-----------------------| 
G---7---5---3-----------| 
D---7---5---3-----------| 
A---5---3---1-----------| 
D-----------------------| 


 

Three Libras 
--------------- 

transcribed by: DJ Karasek 
billhicks7@aol.com 
 
 
G |4----------------4-------|  
D |-------------------------|  
A |---------7---------------| X3 
E |5-----------5------------|        
 
G |8-----------------8-------|  
D |--------------------------|  
A |---------11---------------| X1 
E |9------------9------------|    
 
G |4----------------4-------|  
D |-------------------------|  
A |---------7---------------| X2 
E |5-----------5------------|        
 
G |8-----------------8-------|  
D |--------------------------|  
A |---------11---------------| X1 
E |9------------9------------|    
 
G |11------------------11-------|  
D |-----------------------------|  
A |----------13-----------------| X1 
E |12------------12-------------|    
 
REPEAT THEN... 
 
G |9-------------------9-------|             |09~~~| 
D |----------------------------|             |XX---| 
A |----------12----------------|   X3  THEN  |12~~~| STRUM 
E |10------------10------------|             |10~~~|  
 
VERSE 
 
G |4----------------4-------|  
D |-------------------------|  
A |---------7---------------| X2 
E |5-----------5------------|       
 
G |6----------------6-------|  
D |-------------------------|  
A |---------9---------------| X1 
E |7-----------7------------|       
 
G |7-----------------7-------|  
D |--------------------------|  
A |---------10---------------| X1 
E |8------------8------------|       
 
DIFFICULT NOT TO FEEL... 
 
G |4----------------4-------|  
D |-------------------------|  
A |---------7---------------| X3 
E |5-----------5------------|   
 
G |11------------------11-------|  
D |-----------------------------|  
A |----------13-----------------| X1 
E |12------------12-------------|   
 
G |8-----------------8-------|  
D |--------------------------|  
A |---------11---------------| X4 
E |9------------9------------|  
 
 
G |4----------------4-------|  
D |-------------------------|  
A |---------7---------------| X3 
E |5-----------5------------|   
 
G |11------------------11-------|  
D |-----------------------------|  
A |----------13-----------------| X1 
E |12------------12-------------|   
 
G |8-----------------8-------|  
D |--------------------------|  
A |---------11---------------| X2 
E |9------------9------------|  
 
G |9-------------------9-------|        
D |----------------------------|           
A |----------12----------------|   X2 
E |10------------10------------|    
 
CHORUS 
 
Chords 
 
E5 
 
 
D: |2|             G: |9|     Talor this to your sound of your version. Maybe 
A: |2| or high E5  D: |9|     use both, with 2 guitars. Nice contrast. 
E: |0|             A: |7|   
 
C5 
 
G: |5| 
D: |5| 
A: |3| 
 
F5 
 
D: |3|             G: |10|     Same with E5 chord. 
A: |3| or high E5  D: |10|      
E: |1|             A: |08|   
 
*note, for those whome dont know, 5th chords, or more commonly known as 
*power chords are the basic of basic chords. If you want a thicker fuller 
*sound, play the whole chord. Acoustics tend to play the entire more so than 
*electrics, expecially when the electric is distorted. 
 
Chorus structor, 
 
/ = strum down, ^ strum up, X = hit chord, - = no chord played. 
 
    E5            C5     F5 
    / /^/  / /^/  / /^/  / /^/^ 
x: |X-XXX-|X-XXX-|X-XXX-|X-XXXX| 
x: |X-XXX-|X-XXX-|X-XXX-|X-XXXX| X4  (THIS IS JUST MY INTERP) 
x: |X-XXX-|X-XXX-|X-XXX-|X-XXXX| 
 
 
This next part is taken from the tab posted on the listen.to/aperfectcircle 
site, 
transcribed by:'Gaius Oniros'. He did a good job on this part, so instead of 
typing it all out, I copy and pasted. Hope you dont mind!  
 
G |-6---6---6---6-\-4---4---4---4---4---4---4---4---4---4---|  
D |---------------------------------------------------------|  
A |-4---4---4---4-\-2---2---2---2---2---2---2---2---2---2---|  
 
G |/6---6---6---6-/-8---8---8---8---8---8---8---8---8---8---|  
D |---------------------------------------------------------|  
A |/4---4---4---4-/-6---6---6---6---6---6---6---6---6---6---|  
 
G |-6-------6-\-4-------4---4---4---4---4---4---4---4---4---|  
D |---------------------------------------------------------|  
A |-4-------4-\-2-------2---2---2---2---2---2---2---2---2---|  
 
 
G |/6---6---6---6-/-8---8---8---8---8---8---8---8---8---8---|  
D |---------------------------------------------------------|  
A |/4---4---4---4-/-6---6---6---6---6---6---6---6---6---6---|  
 
 
G |/9---9---9---9-/-13--13--13--13--13--13--13--13--13--13--|  
D |---------------------------------------------------------|  
A |/7---7---7---7-/-11--11--11--11--11--11--11--11--11--11--|  
 
 
G |13-/-16--16--16--16--16--9---9---8---8---8---8---8---8---|  
D |---------------------------------------------------------|  
A |11-/-14--14--14--14--16--7---7---6---6---6---6---6---6---|  
 
 
G |-6-------4---4-------4-4-----4---4---4-4-/-6---6-\-4---4-|  
D |---------------------------------------------------------|  
A |-4-------2---2-------2-2-----2---2---2-2-/-4---4-\-2---2-|  
 
 
B |-----------------------------3---------------------------|  
G |-4---4---4---4-\-2---2---2---2---------------------------|  
D |-----------------------------0---------------------------|  
A |-2---2---2---2-\-0---0---0---0---------------------------|  
                                let ring.................  





SLEEPING BEAUTY		     
Tabbed by jason babin
 
 
e-------------------------------------| 
B-------------------------------------| 
G-------------------------------------| 
D--0--0-------------------------------| 
A--x--x---0--0--9--7--9--7------------| 
D--9--7---0--0--0--0--0--0------------| 
 
 
chorus 
 
e------------------------------------------| 
B------------------------------------------| 
G------------------------------------------| 
D------------------------------------------| 
A------------------------------------------| 
D--4--4-5--7--10--10-\-7-------------------| 
 
 
e------------------------------------------| 
B------------------------------------------| 
G------------------------------------------| 
D--------------0----------------0---0------| 
A--9--7--9--7--0--9--7--9--7----x---x------| 
D--0--0--0--0--0--0--0--0--0----9---7------| 
 
 
    p.m.___________________ 
 
e------------------------------------------| 
B------------------------------------------| 
G------------------------------------------| 
D----0--0--0--0--0...----------------------| 
A----0--0--0--0--0...----9...--7....-------| 
D----0--0--0--0--0...----9...--7....-------| 
 
 
lead over 'far beyond the visible sign of your awakening' 
 
 
e--------------------------| 
B--------------------------| 
G-----11--11---9---7-------| 
D--------------------------| 
A-----9---9----7---5-------| 
D--------------------------| 
 
 
Bridge 
 
e---------------------------------------| 
B---------------------------------------| 
G--4...---7----4...-------9-------------| 
D---------------------------------------| 
A--2...---5----2...-------7-------------| 
D---------------------7-----------------| 
 
lead (with harmony) 
 
e------------------------------------------------------------| 
B-------------------------------------12-12-12-10---8--10----| 
G---11--11--12--11--11-12--11--11-12-------------------------| 
D------------------------------------------------------------| 
A------------------------------------------------------------| 
D------------------------------------------------------------| 
 
			9 
repeat chorus end on	9  
			9 




THOMAS		     
Tabbed by jason babin 
 
 
intro (clean) 
 
e---------------------------------------------10-----| 
B--6----6------5----5----5---------------------------| 
G----7----7------7----7----7-----5-/-7----7----------| 
D------7----7------7----7----7---5-/-7--7---7--------| 
A----------------------------------------------------| 
D----------------------------------------------------| 
 
 
 
 
 
band in 
e------------------------------------------| 
B------------------------------------------| 
G------------------------------------------| 
D---0--0--3--3--10--10--x--6---------------| 
A---0--0--3--3--10--10--x--6---------------| 
D---0--0--3--3--10--10--x--6---------------| 
 
 
 
verse 
 
p.m.---> 
e----------------------------------------------------| 
B----------------------------------------------------| 
G----------------------------------------------------| 
D---8...-------10--10--10----------------------------| 
A---8...-------10--10--10----------------------------| 
D---8...-------10--10--10----------------------------| 
 
 
chorus 
 
e------------------------------------------| 
B------------------------------------------| 
G--5--5--7--9---7--------------------------| 
D-------------------0--0--3--10------------| 
A--3--3--5--7---5---0--0--3--10------------| 
D-------------------0--0--3--10------------| 
 
 
you make me....... 
 
e-------------------------------------------| 
B--------------------3----------------------| 
G--------------------2----------------------| 
D---8--8--8--8--10---0----------------------| 
A---8--8--8--8--10---0----------------------| 
D---8--8--8--8--10---0----------------------| 
 
 
 
 
 
 
 
bridge               
 
e------------------------------------------| 
B------------------------------------------| 
G------------------------------------------| 
D------------------------------------------| 
A------------------------------------------| 
D---3^0--0-3^0-0--3^0--0-3^0--0-5^---------| 
 


BRENA - SOLO		     
From the album 'Mer de noms '		     
 
TUNED HALF STEP DOWN C# 

              
  ~outro~ 
 
***SOLO*** 
 
 
3:20 
 
e----10--9---------------------| 
B------------7-----------------| 
G------------------------------| 
D------------------------------| 
A------------------------------| 
D------------------------------| 
 
 
e---------------------------------------| 
B-------------8--7---8--7---------------| 
G---7--9--7----------------9---9--7--6--| 
D---------------------------------------| 
A---------------------------------------| 
D---------------------------------------| 
 
 
3:29 
 
e-----9--8--7------------------| 
B--------------10--8--7--8--7--| 
G------------------------------| 
D------------------------------| 
A------------------------------| 
D------------------------------| 
 
 
e------------------------------| 
B------------------------------| 
G--9~-9--7---------------------| 
D------------9-----------------| 
A------------------------------| 
D------------------------------| 
 
next run not exact 
 
3:33 
 
e----------------------------------------------| 
B----------------------------------------------| 
G------------7--6--7--6-------7--6-------------| 
D------7--9--------------7--9-------7--9-7--9--| 
A--/-9-----------------------------------------| 
D----------------------------------------------| 
 
 
3:36 
 
e----------------------------------------| 
B----------------------------------------| 
G----------7--6-------------9--7---------| 
D--7--9--x------9---7--9--x------9-------| 
A----------------------------------------| 
D----------------------------------------| 
 
 
		     3:42 
e------------------------------| 
B------------------------------| 
G---------6--7-----------------| 
D---7--9-------9---------------| 
A------------------7^9--9~-----| 
D------------------------------| 
 
 
 
 
e------------------------------| 
B------------------------------| 
G------------------------------| 
D------------------------------| 
A------------------------------| 
D--9---12----5---7---9---------| 
 
 
4:02 fine
Suggest correction
What's this?
You can suggest a correction to this tab. Community and Mods will review your correction and vote to approve or reject it.
comments
print report bad tab
2 comments total.
0 reply
Stgdemon 0 wrote on December 20 2002, 12:00 am

Orestes for the intro and the chorus.

Intro/verse
e-----------------------------|
B--------------6-------6------|
G----5-----5------7------7----|
D--7----7-----------7------7--|
A-----8------8----------------|
D-----------------------------|

Chrous
got a....cut away

e-----------------------------|
B-----1-----1----1----1-------|
G---2-----2-----2---2---------|
D-0-----0---------------------|
A-------------3----3----------|
D-----------------------------|

e-----------------------------|
B-----1-----1----1----1-------|
G---2-----2-----2---2---------|
D-----------------------------|
A-1-----1-----1---1-----------|
D-----------------------------|





0 reply
acid_vaynes 36 wrote on June 19 2013, 06:47 pm

Where's Magdalena?

guest
You may want to rate the tab now too:
select rating
Please do not post tabs as comments. Select "correction" instead!