Oops, an error
Loading. Please wait.

Nurse Who Loved Me Tab

version 1
version 1

Whole song

Interactive

7,507 views 3 this week
1 commentread comment
1 2 3 4 5
please rate
add to favorites
launch autoscroll
font size
0
reset
how to read this tab
guitar tuner
Autoscroll
slow
fast
+/-
esc
set tempo
stop
Help us to improve Ultimate-Guitar.com Take our survey!
×
Contributor
Andrew Zara 3,571
Band- A Perfect Circle
Song- The Nurse Who Loved Me

Tuning: DADGBE
Gtr I: Strings
Gtr II: Violin

 Verse 1
|-------------|-------------|----------------------|
|-^6----^4----|-^6----^7----|----------------------|
|-^6----^3----|-^6----^6----|----------------------|
|-^6----------|-^6----^4----|-^6----^4--3---1------|
|-^4----------|-^4----^4----|-^4----^2----------4--|
|-------^5----|-------^4----|-^3----^1-------------|


|-------------|---------|-------------|
|-^7----^4----|-^(4)----|-^6----^4----|
|-^6----^5----|-^(5)----|-^6----^3----|
|-^4----^6----|-^(6)----|-^6----------|
|-^4----------|---------|-^4----------|
|-^4----^6----|-^(6)----|-------^5----|


|-------------|----------------------|-------------|-^4----|
|-^6----^7----|----------------------|-^7----^4----|-^4----|
|-^6----^6----|----------------------|-^6----^5----|-^5----|
|-^6----^4----|-^6----^4--3---1------|-^4----^6----|-^6----|
|-^4----^4----|-^4----^2----------4--|-^4----------|-------|
|-------^4----|-^3----^1-------------|-^4----^6----|-------|


   Chorus 1
				     3x
|------------------|------------------|
|o-7---7---7---7---|-6---6---4---4---o|
|--6---6---6---6---|-6---6---6---6----|
|--4---4---4-4-4---|-6-6-6---6-6-6----|
|o---4-----0-----0-|-4---4-4---------o|
|--4-----4---------|---------6-----6--|


|-----------------|----------------|
|-7---7---7---7---|-6---6---^4-----|
|-6---6---6---6---|-6---6---^6-----|
|-4---4---4-4-4---|-6-6-6---^6-----|
|---4-----0-----0-|-4---4-4--------|
|-4-----4---------|---------^6-----|


 Verse 2
|-----------------|---------------------|---------------------------|
|-6---6---4---4---|--6----6----7----7---|---------------------------|
|-6---6---3---3---|--6----6----6----6---|---------------------------|
|-6---6-----------|--6----6----4----4---|--6----6---^4---3---1------|
|-4-4-4-4---------|--4--4-4-4--4--------|--4----4---^2-----------4--|
|---------5-5---5-|------------4--4---4-|--3--3-3-3-^1--------------|
|
| Gtr II
|-----------------|---------------------|---------------------------|
|-2-1-------------|---------------------|---------------------------|
|-----3-1-3-------|-----1---1-----------|---------1-----------------|
|-----------------|-------3-------3-1-3-|-------3------------4---3--|
|-----------------|---------------------|-----4---------------------|
|-----------------|---------------------|---------------------------|


|---------------|-^4-----|
|-^7------^4----|-^4-----|
|-^6------^5----|-^5-----|
|-^4------^6----|-^6-----|
|-^4------------|--------|
|-^4------^6----|--------|
|
|---------------|--------|
|---------------|--------|
|----1-3///5----|-(5)----|
|--4------------|--------|
|---------------|--------|
|---------------|--------|


  Gtr I
|-------------|-------------|----------------------|
|-^6----^4----|-^6----^7----|----------------------|
|-^6----^3----|-^6----^6----|----------------------|
|-^6----------|-^6----^4----|-^6----^4--3---1------|
|-^4----------|-^4----^4----|-^4----^2----------4--|
|-------^5----|-------^4----|-^3----^1-------------|


|-------------|---------|-------------|
|-^7----^4----|-^(4)----|-^6----^4----|
|-^6----^5----|-^(5)----|-^6----^3----|
|-^4----^6----|-^(6)----|-^6----------|
|-^4----------|---------|-^4----------|
|-^4----^6----|-^(6)----|-------^5----|


|-------------|----------------------|-------------|-^4----|
|-^6----^7----|----------------------|-^7----^4----|-^4----|
|-^6----^6----|----------------------|-^6----^5----|-^5----|
|-^6----^4----|-^6----^4--3---1------|-^4----^6----|-^6----|
|-^4----^4----|-^4----^2-(2)-(2)--4--|-^4----------|-------|
|-------^4----|-^3----^1-(1)-(1)-(1)-|-^4----^6----|-------|


   Chorus 2
				    3x
|------------------|------------------|
|o-7---7---7---7---|-6---6---4---4---o|
|--6---6---6---6---|-6---6---6---6----|
|--4---4---4---4---|-6---6---6---6----|
|o---------0-0---0-|-4-4-4-4---------o|
|--4-4-4-4---------|---------6-6-6-6--|


|-----------------|----------------|
|-7---7---7---7---|-6---6---^4-----|
|-6---6---6---6---|-6---6---^6-----|
|-4---4---4---4---|-6---6---^6-----|
|---------0-0---0-|-4-4-4-4--------|
|-4-4-4-4---------|---------^6-----|


   Interlude
|------------------|-----------------|------------------------|
|o-6---6---4---4---|-6---6---7---7---|------------------------|
|--6---6---3---3---|-6---6---6---6---|------------------------|
|--6---6-----------|-6---6---4---4---|-6---6---^4--3---1------|
|o-4-4-4-4---------|-4-4-4-4-4-------|-4---4---^2----------4--|
|----------5-5---5-|---------4-4---4-|-3-3-3-3-^1-------------|


|-------------|-^4-----|
|-^7----^4----|-^4----o|
|-^6----^5----|-^5-----|
|-^4----^6----|-^6-----|
|-^4----------|-------o|
|-^4----^6----|--------|


				    3x
|------------------|------------------|
|o-7---7---7---7---|-6---6---4---4---o|
|--6---6---6---6---|-6---6---6---6----|
|--4---4---4-4-4---|-6-6-6---6-6-6----|
|o---4-----0-----0-|-4---4-4---------o|
|--4-----4---------|---------6-----6--|


|-----------------|----------------|
|-7---7---7---7---|-6---6---^4-----|
|-6---6---6---6---|-6---6---^6-----|
|-4---4---4-4-4---|-6-6-6---^6-----|
|---4-----0-----0-|-4---4-4--------|
|-4-----4---------|---------^6-----|


   Interlude
|--------------------|---------------------|-------------------------|
|o-6---6----4----4---|--6----6----7----7---|-------------------------|
|--6---6----3----3---|--6----6----6----6---|-------------------------|
|--6---6-------------|--6----6----4----4---|-6---6---^4---3---1------|
|o-4-4-4-4-----------|--4--4-4-4--4--------|-4---4---^2-----------4--|
|-----------5--5---5-|------------4--4---4-|-3-3-3-3-^1--------------|
|
|   Gtr II
|--------------------|---------------------|-------------------------|
|o-------------------|---------------------|-------------------------|
|----6-5-6-(6)-6-5-6-|-(6)-6-5-6-(6)-6-5-6-|-6-6-5-6-(6)--6---5---6--|
|--------------------|---------------------|-------------------------|
|o-------------------|---------------------|-------------------------|
|--------------------|---------------------|-------------------------|


|--------------------|-^4---------|
|-^7-------^4--------|-^4--------o|
|-^6-------^5--------|-^5---------|
|-^4-------^6--------|-^6---------|
|-^4-----------------|-----------o|
|-^4-------^6--------|------------|
|
|--------------------|------------|
|--------------------|-----------o|
|----6-5-6-(6)-6-5-6-|-(6)-6-5-6--|
|--------------------|------------|
|--------------------|-----------o|
|--------------------|------------|


  Gtr I
|-------------|-------------|-------*|
|-^6----^4----|-^6----^7----|-^6----*|
|-^6----^3----|-^6----^6----|-^6----*|
|-^6----------|-^6----^4----|-^6----*|
|-^4----------|-^4----^4----|-^4----*|
|-------^5----|-------^4----|-------*|

End.

Tablature Legend
----------------
 /\  - slide
 ~   - vibrato
 ^   - arpeggiate
Suggest correction new What's this?
You can suggest a correction to this tab. Community and Mods will review your correction and vote to approve or reject it.
comments
We did not receive enough feedback on this tab! Please rate:
print report bad tab
1 2 3 4 5
1 comment total.
0 reply
Ribica 149 wrote on August 10 2007, 08:36 am

Isn't this done on a strumming instrument?

guest
You may want to rate the tab now too:
select rating
Please do not post tabs as comments. Select "correction" instead!