Oops, an error
Loading. Please wait.
We have an official Orestes tab made by UG professional guitarists. Check out the tab »
×
4,756 views 9 this week
1 commentread comment
1 2 3 4 5
x 4
add to favorites
×
Save as Personal and add changes to this tab that will be seen only by you. Learn more ›
×
You can save this tab as Personal to edit and correct it or add notes. All changes will be seen only by you. Learn more »
launch autoscroll
font size
0
reset
guitar tuner
backing track
0:00
0:00
edit
Autoscroll
slow
fast
+/-
esc
set tempo
stop
Author
A Perfect Circle - Orestes
Tabbed by: Eric A.
two2twelve@gmail.com

Tuning: C# F# B E (Db Gb B E)

Legend
 
p - pull off
\\ - slide down
// - slide up
~~ - vibrato
 

Intro:

No Bass


Verse 1:

E-----------------------------------|
B-----------------------------------|
F#7--7-7--7/10-10-10--3--3-3/5-5-5--|
C#----------------------------------|


E-------------------------------------|
B-------------------------------------|
F#7--7-7--7/12-12-12--3--3-3-3p0-0-8\-|
C#------------------------------------|


E-----------------------------------|
B-----------------------------------|
F#7--7-7--7/10-10-10--3--3-3/5-5-5--|
C#----------------------------------|


E-------------------------------------|
B-------------------------------------|
F#7--7-7--7/12-12-12--3--3-3-3p0-0-8\-|
C#------------------------------------|


E-----------------------------------|
B-----------------------------------|
F#7--7-7--7/10-10-10--3--3-3/5-5-5--|
C#----------------------------------|


E-------------------------------------|
B-------------------------------------|
F#7--7-7--7/12-12-12--3--3-3-3p0-0-8\-|
C#------------------------------------|


E-----------------------------------|
B-----------------------------------|
F#7--7-7--7/10-10-10--3--3-3/5-5-5--|
C#----------------------------------|


E-------------------------------------|
B-------------------------------------|
F#7--7-7--7/12-12-12--3--3-3-3p0-0-8\-|
C#------------------------------------|


Chorus:

2x
E-------------------------------------------------|
B-------------------------------------------------|
F#-7--7-7-7--7-7/5--5-5-5--5/3-3-3-3-3-3-3p0-0-5--|
C#------------------------------------------------|


Verse 2:


E-----------------------------------|
B-----------------------------------|
F#7--7-7--7/10-10-10--3--3-3/5-5-5--|
C#----------------------------------|


E-------------------------------------|
B-------------------------------------|
F#7--7-7--7/12-12-12--3--3-3-3p0-0-8\-|
C#------------------------------------|


E-----------------------------------|
B-----------------------------------|
F#7--7-7--7/10-10-10--3--3-3/5-5-5--|
C#----------------------------------|


E-------------------------------------|
B-------------------------------------|
F#7--7-7--7/12-12-12--3--3-3-3p0-0-8\-|
C#------------------------------------|

Bridge


E-------------------------------------|
B-------------------------------------|
F#7--7\3-3-3/5-5/7-7-7-7--------------| 
C#------------------------------------|

E-------------------------------------|
B-------------------------------------|
F#7--7\3-3-3/5-5/7-7-8-8--------------| 
C#------------------------------------|


E-----------------------------------------------------|
B-----------------------------------------------------|
F#7-77-77-7\3-33-33/5-5-5-5/7-7-77-77-7/3-33-33p0-0/8-|
C#----------------------------------------------------|


E-----------------------------------------------------|
B-----------------------------------------------------|
F#7-77-77-7\3-33-33/5-5-5-5/7-7-77-77-7/3-33-33-8-8-8-|
C#----------------------------------------------------|

Chorus

3x
E-------------------------------------------------|
B-------------------------------------------------|
F#-7--7-7-7--7-7/5--5-5-5--5/3-3-3-3-3-3-3p0-0-5--|
C#------------------------------------------------|

E--------------------------------------------------|
B--------------------------------------------------|
F#-7--7-7-7--7-7/5--5-5-5--5/3-3-3-3-3-3-3p0-0-7b--|
C#-------------------------------------------------|


E------------------------------|
B------------------------------|
F#3-33-33p0-0-0--7-77-77p0-0-0-|
C#-----------------------------|


E------------------------------|
B------------------------------|
F#3-33-33p0-0-0--7-77-77h8-88--|
C#-----------------------------|


E------------------------------|
B------------------------------|
F#3-33-33p0-0-0--7-77-77p0-0-0-|
C#-----------------------------|


E------------------------------|
B------------------------------|
F#3-33-33p0-0-0--7-77-77h8-88--|
C#-----------------------------|



E------------------------------|
B------------------------------|
F#3-33-33p0-0-0--7-77-77p0-0-0-|
C#-----------------------------|


E------------------------------|
B------------------------------|
F#3-33-33p0-0-0--7-77-77-------|
C#-----------------------------|


E---------|
B---------|
F#--------|
C#0-2-3---|


Ending Chorus

2x
E-------------------------------------------------|
B-------------------------------------------------|
F#-7--7-7-7--7-7/5--5-5-5--5/3-3-3-3-3-3-3p0-0-5--|
C#------------------------------------------------|

E---------------------------------------------------|
B---------------------------------------------------|
F#-7--7-7-7/10-10-10/5-5-55-55/3-3-3-3-3-3-7b-------|
C#--------------------------------------------------|


Les Pauls and ivory bathrooms. Good times.
-E-mail me

            
            
Suggest correction
Creating personal tab
Creating personal tab
You can edit any tab online and save it as your Personal.

You can edit, replace or remove any tab part or add personal notes – all changes will be seen only by you.

Personal tabs can be accessed anytime from any device, even offline.
Learn more »
comments
print report bad tab
1 comment total.
0 reply
WanderingBssist 10 Mar 11, 2015 04:25 PM

Fell in love with this song and as far as I can tell this tab is spot on. Also take note im new to the bass (not guitar)

guest
You may want to rate the tab now too:
select rating
Wanna post a correction for this tab? Suggest correction