Oops, an error
Loading. Please wait.
We have an official Orestes tab made by UG professional guitarists. Check out the tab »
×
8,140 views 18 this week
1 commentread comment
1 2 3 4 5
x 6
add to favorites
×
Save as Personal and add changes to this tab that will be seen only by you. Learn more ›
×
You can save this tab as Personal to edit and correct it or add notes. All changes will be seen only by you. Learn more »
launch autoscroll
font size
0
reset
how to read this tab
guitar tuner
backing track
0:00
0:00
edit
Autoscroll
slow
fast
+/-
esc
set tempo
stop
A Perfect Circle - Orestes - Acoustic version

I listened very carefully to this excellent song to get this right. 
The exact strumming patterns and rhythm you will have to listen for,
although i have done my best to show the rough pattern.

timing is 6/8 i think

Any comments welcomed.



    (main verse riff, repeat until bridge 1)

C#|-0--0-0--0-0-----0-0-0-----0--0-0--0-0-----0--0-------|
G#|-0--0-0--0-0-----0-0-0-----0--0-0--0-0-----0--0-------|
E |-6--6-6--6-6-----9-9-9-----2--2-2--2-2-----4--4-------|
B |-6--6-6--6-6-----9-9-9-----2--2-2--2-2-----4--4-------|
F#|-4--4-4--4-4-----7-7-7-----0--0-0--0-0-----2--2-------|
C#|-x--x-x--x-x-----x-x-x-----x--x-x--x-x-----x--x-------|



C#|-0--0-0--0-0-----0--0--0------0--0-0--0-0-----x--x----|
G#|-0--0-0--0-0-----0--0--0------0--0-0--0-0-----x--x----|
E |-6--6-6--6-6-----11-11-11-----2--2-2--2-2-----x--x----|
B |-6--6-6--6-6-----11-11-11-----2--2-2--2-2-----4--7----|
F#|-4--4-4--4-4-----9--9--9------0--0-0--0-0-----4--5----|
C#|-x--x-x--x-x-----x--x--x------x--x-x--x-x-----2--5----|

 
 
  (bridge 1, play twice)

C#|-0--0-0--0-0--0-0-0-----0--0-0--0-0--0-0-0------------|
G#|-0--0-0--0-0--0-0-0-----0--0-0--0-0--0-0-0------------|
E |-6--6-6--6-6--6-6-6-----4--4-4--4-4--4-4-4------------|
B |-6--6-6--6-6--6-6-6-----4--4-4--4-4--4-4-4------------|
F#|-4--4-4--4-4--4-4-4-----2--2-2--2-2--2-2-2------------|
C#|-x--x-x--x-x--x-x-x-----x--x-x--x-x--x-x-x------------|



C#|-0--0-0--0-0--0-0-0-0-0--0-0--0-0--0-0-0--------------|
G#|-0--0-0--0-0--0-0-0-0-0--0-0--0-0--0-0-0--------------|
E |-2--2-2--2-2--2-2-2-2-2--2-2--2-2--2-2-2--------------|
B |-2--2-2--2-2--2-2-2-2-2--2-2--2-2--2-2-2--------------|
F#|-0--0-0--0-0--0-0-0-0-0--0-0--0-0--0-0-0--------------|
C#|-x--x-x--x-x--x-x-x-x-x--x-x--x-x--x-x-x--------------|



  (verse play twice more)

C#|-0--0-0--0-0-----0-0-0-----0--0-0--0-0-----0--0-------|
G#|-0--0-0--0-0-----0-0-0-----0--0-0--0-0-----0--0-------|
E |-6--6-6--6-6-----9-9-9-----2--2-2--2-2-----4--4-------|
B |-6--6-6--6-6-----9-9-9-----2--2-2--2-2-----4--4-------|
F#|-4--4-4--4-4-----7-7-7-----0--0-0--0-0-----2--2-------|
C#|-x--x-x--x-x-----x-x-x-----x--x-x--x-x-----x--x-------|



C#|-0--0-0--0-0-----0--0--0------0--0-0--0-0-----x--x----|
G#|-0--0-0--0-0-----0--0--0------0--0-0--0-0-----x--x----|
E |-6--6-6--6-6-----11-11-11-----2--2-2--2-2-----x--x----|
B |-6--6-6--6-6-----11-11-11-----2--2-2--2-2-----4--7----|
F#|-4--4-4--4-4-----9--9--9------0--0-0--0-0-----4--5----|
C#|-x--x-x--x-x-----x--x--x------x--x-x--x-x-----2--5----|



  (bridge 2)

C#|-0----0--0-0-----0-0-0-----0--0-0--0-0-----0-0--------|
G#|-0----0--0-0-----0-0-0-----0--0-0--0-0-----0-0--------|
E |-6----6--6-6-----6-6-6-----2--2-2--2-2-----4-4--------|
B |-6----6--6-6-----6-6-6-----2--2-2--2-2-----4-4--------|
F#|-4----4--4-4-----4-4-4-----0--0-0--0-0-----2-2--------|
C#|-x----x--x-x-----x-x-x-----x--x-x--x-x-----x-x--------|



C#|-0----0--0-0----0--0-0---0-0-0--0--0------------------|
G#|-0----0--0-0----0--0-0---0-0-0--0--0------------------|
E |-6----6--6-6----6--6-6---6-6-6--6--6------------------|
B |-6----6--6-6----6--6-6---6-6-6--6--6------------------|
F#|-4----4--4-4----4--4-4---4-4-4--4--4------------------|
C#|-x----x--x-x----x--x-x---x-x-x--x--x------------------|

  

  (then)

C#|-0----0--0-0-----0-0-0-----0--0-0--0-0-----0-0--------|
G#|-0----0--0-0-----0-0-0-----0--0-0--0-0-----0-0--------|
E |-6----6--6-6-----6-6-6-----2--2-2--2-2-----4-4--------|
B |-6----6--6-6-----6-6-6-----2--2-2--2-2-----4-4--------|
F#|-4----4--4-4-----4-4-4-----0--0-0--0-0-----2-2--------|
C#|-x----x--x-x-----x-x-x-----x--x-x--x-x-----x-x--------|

C#|-0----0--0-0-----0-0-0-----0--0-0--0-0-----0-0-0------|
G#|-0----0--0-0-----0-0-0-----0--0-0--0-0-----0-0-0------|
E |-6----6--6-6-----6-6-6-----7--7-7--7-7-----7-7-7------|
B |-6----6--6-6-----6-6-6-----7--7-7--7-7-----7-7-7------|
F#|-4----4--4-4-----4-4-4-----5--5-5--5-5-----5-5-5------|
C#|-x----x--x-x-----x-x-x-----x--x-x--x-x-----x-x-x------|



  (chorus)

C#|-0-0--0-0-0-----0-0--0-0-0-----0--0-0--0-0-----0-0----|
G#|-0-0--0-0-0-----0-0--0-0-0-----0--0-0--0-0-----0-0----|
E |-4/6--6-6-6-----4/6--6-6-6-----2--2-2--2-2-----4-4----|
B |-4/6--6-6-6-----4/6--6-6-6-----2--2-2--2-2-----4-4----|
F#|-2/4--4-4-4-----2/4--4-4-4-----0--0-0--0-0-----2-2----|
C#|-X-X--X-X-X-----X-X--X-X-X-----X--X-X--X-X-----X-X----|



C#|-0-0--0-0-0-----0-0--0-0-0-----0--0-0--0-0-----X-X-X--|
G#|-0-0--0-0-0-----0-0--0-0-0-----0--0-0--0-0-----X-X-X--|
E |-4/6--6-6-6-----4/6--6-6-6-----2--2-2--2-2-----X-X-X--|
B |-4/6--6-6-6-----4/6--6-6-6-----2--2-2--2-2-----4-4-7--|
F#|-2/4--4-4-4-----2/4--4-4-4-----0--0-0--0-0-----4-4-5--|
C#|-X-X--X-X-X-----X-X--X-X-X-----X--X-X--X-X-----2-2-5--|



C#|-0-0--0-0-0-----0-0--0-0-0-----0--0-0--0-0-----0-0----|
G#|-0-0--0-0-0-----0-0--0-0-0-----0--0-0--0-0-----0-0----|
E |-4/6--6-6-6-----4/6--6-6-6-----2--2-2--2-2-----4-4----|
B |-4/6--6-6-6-----4/6--6-6-6-----2--2-2--2-2-----4-4----|
F#|-2/4--4-4-4-----2/4--4-4-4-----0--0-0--0-0-----2-2----|
C#|-X-X--X-X-X-----X-X--X-X-X-----X--X-X--X-X-----X-X----|



C#|-0--0-0--0-0--0-0-0-----0--0-0-0-0-0-----0-0----------|
G#|-0--0-0--0-0--0-0-0-----0--0-0-0-0-0-----0-0----------|
E |-6--6-6--6-6--6-6-6-----8--8-8-8-8-8-----9-9----------|
B |-6--6-6--6-6--6-6-6-----8--8-8-8-8-8-----9-9----------|
F#|-4--4-4--4-4--4-4-4-----6--6-6-6-6-6-----7-7----------|
C#|-X--X-X--X-X--X-X-X-----X--X-X-X-X-X-----X-X----------|



  (outro, repeat till end)

C#|-0--0-0--0-0--0-0-0-----0--0-0--0-0--0-0-0------------|
G#|-0--0-0--0-0--0-0-0-----0--0-0--0-0--0-0-0------------|
E |-6--6-6--6-6--6-6-6-----4--4-4--4-4--4-4-4------------|
B |-6--6-6--6-6--6-6-6-----4--4-4--4-4--4-4-4------------|
F#|-4--4-4--4-4--4-4-4-----2--2-2--2-2--2-2-2------------|
C#|-x--x-x--x-x--x-x-x-----x--x-x--x-x--x-x-x------------|



C#|-0--0-0--0-0--0-0-0-0-0--0-0--0-0--0-0-0--------------|
G#|-0--0-0--0-0--0-0-0-0-0--0-0--0-0--0-0-0--------------|
E |-2--2-2--2-2--2-2-2-2-2--2-2--2-2--2-2-2--------------|
B |-2--2-2--2-2--2-2-2-2-2--2-2--2-2--2-2-2--------------|
F#|-0--0-0--0-0--0-0-0-0-0--0-0--0-0--0-0-0--------------|
C#|-x--x-x--x-x--x-x-x-x-x--x-x--x-x--x-x-x--------------|


tabbed on 19/01/09 by me (dave)



            
            
Suggest correction
Creating personal tab
Creating personal tab
You can edit any tab online and save it as your Personal.

You can edit, replace or remove any tab part or add personal notes – all changes will be seen only by you.

Personal tabs can be accessed anytime from any device, even offline.
Learn more »
comments
print report bad tab
1 comment total.
0 reply
WatTwo 10 Jun 21, 2010 09:30 PM

Great tab.

Only one I could find in the correct tuning :)

guest
You may want to rate the tab now too:
select rating
Wanna post a correction for this tab? Suggest correction