Oops, an error
Loading. Please wait.

Passive chords

version 3
version 3

Whole song

Interactive

742 views 9 this week
no commentswrite comment
1 2 3 4 5
3 more votes to show rating
add to favorites
×
Save as Personal and add changes to this tab that will be seen only by you. Learn more ›
×
You can save this tab as Personal to edit and correct it or add notes. All changes will be seen only by you. Learn more »
launch autoscroll
font size
0
reset
transpose
0
reset
simplify chords
display chords
guitar tuner
backing track
0:00
0:00
edit
Autoscroll
slow
fast
+/-
esc
set tempo
stop
Strumming
There is no strumming pattern for this song yet. and get +5 IQ
Tuning: D G C F A D
Tip: Hold Low E string with thumb for intro as well as the D9 chord.
     I use my Thumb for the F chord also but that's entirely preference.

  Arpeggio Intro

d|-------------------0-------------------|d
A|---1---3-------1-------1---3-----------|A
F|---------------------------------------|F
C|-------------------------------5---4---|C
G|---0-------0---3---------------5-------|G
D|-----------------------3---------------|D

d|-------------------0-------------------|d
A|---1---3-------1-------1---3-----------|A
F|---------------------------------------|F
C|-------------------------------0-------|C
G|---0-------0---3-----------------------|G
D|-----------------------3---------------|D


Am                     Am
“Dead as dead can be,” my doctor tells me
Am                            Gsus        D9
But I just can’t believe him, never the optimistic
Am                   Am                Gsus       D9
One I’m sure of your ability to become my perfect enemy


Am          C          Gsus                D9
Wake up and face me, don’t play dead cause maybe
Am             C                 Gsus                    
Someday I will walk away and say, “You disappoint me,”
D9                           
Maybe you’re better off this way


Am                     Am
Leaning over you here, cold and catatonic
Am                         Gsus            D9                   
I catch a brief reflection of what you could and might have been
Am                                      Gsus   D9
It's your right and your ability to become my perfect enemy


Am                          C             
Wake up (why can't you) and face me (come one now),
G                                 D9
Don’t play dead (don't play dead) cause maybe ('cause maybe)
Am                          C                 Gsus                    
Someday I’ll (someday I'll) walk away and say, “You disappoint me,”
D9                           Am
Maybe you’re better off this way


C                           Am         
Maybe you’re better off this way
C                           Am 
Maybe you’re better off this way
C                           Am
Maybe you’re better off this way
C                     Am
You’re better of this; you’re better off this;
C
Maybe you’re better off!



Am                      C 
Wake up (why can't you) and face me (come on now),
      Gsus                                 D9
Don’t play dead (don't play dead) 'cause maybe ('cause maybe)
Am                          C                  Gsus                           
Someday I’ll (someday I'll) walk away and say, “You fuckin' disappoint me!”
D9                            
Maybe you’re better off this way


Am
Go ahead and play dead
E
I know that you can hear this
F
Go ahead and play dead
G
Why can't you turn and face me?
Am
Why can't you turn and face me?
E
Why can't you turn and face me?
F
Why can't you turn and face me?
G
You fucking disappoint me!

Am
Passive aggressive bullshit x 12


d|-------------------0-------------------|d
A|---1---3-------1-------1---3-----------|A
F|---------------------------------------|F
C|-------------------------------5---4---|C
G|---0-------0---3---------------5-------|G
D|-----------------------3---------------|D

d|-------------------0-------------------|d
A|---1---3-------1-------1---3-----------|A
F|---------------------------------------|F
C|-------------------------------0-------|C
G|---0-------0---3-----------------------|G
D|-----------------------3---------------|D

            
            
Suggest correction
Creating personal tab
Creating personal tab
You can edit any tab online and save it as your Personal.

You can edit, replace or remove any tab part or add personal notes – all changes will be seen only by you.

Personal tabs can be accessed anytime from any device, even offline.
Learn more »
Give kudos to tab author, rate the tab!
1 2 3 4 5
comments
print report bad tab
guest
You may want to rate the tab now too:
select rating
Wanna post a correction for this tab? Suggest correction