Oops, an error
Loading. Please wait.

Passive tab

version 3
version 3

Whole song

Interactive

26,231 views 39 this week
10 commentsread comments
1 2 3 4 5
x 10
add to favorites
×
Save as Personal and add changes to this tab that will be seen only by you. Learn more ›
×
You can save this tab as Personal to edit and correct it or add notes. All changes will be seen only by you. Learn more »
launch autoscroll
font size
0
reset
how to read this tab
guitar tuner
backing track
0:00
0:00
edit
Autoscroll
slow
fast
+/-
esc
set tempo
stop
Author
Difficulty
PASSIVE by A PERFECT CIRCLE

 [Intro]
e|--------------------|--------------------|
B|---------3----------|---------3----------|
G|-3-5--0-3---3-5-----|-3-5--0-3---3-5-----|
D|----------------3-2-|----------------3~~-|
A|--------------------|--------------------|
E|--------------------|--------------------|

 [Pre-Verse]
e|--------------------------|----------------------------------------|
B|--------------------------|----------------------------------------|
G|-0-5--0-8/7-5/7--0-5--0-3-|-0-5--0-8/7-5/7--0-5--------3333333-0~~-|
D|--------------------------|---------------------3333333------------|
A|--------------------------|----------------------------------------|
E|--------------------------|----------------------------------------|

 "Wake up and face me"
 Lead guitar
e|-----------------|---------------------|
B|----10~~-----6-5-|----10~~-----6-5-3~~-|
G|-7~~-----3-5-----|-7~~-----3-5---------|
D|-----------------|---------------------|
A|-----------------|---------------------|
E|-----------------|---------------------|
Rhythm Guitar- play this twice and strum G5 afterward
|--------------------------------|
|--------------------------------|
|--------------------------------|
|---------3-3-33----------5-5-55-|
|-5-5-55--1-1-11--3-3-33--3-3-33-|
|-3-3-33----------1-1-11---------|

 v2
e|----------------|
B|-9/8-888-888-88-|-play this 3x then
G|----------------|
D|----------------|
A|----------------|
E|----------------|

e|-------------------------|
B|-66666666-10101010101010-|
G|-------------------------|10's not 1's and 0's
D|-------------------------|
A|-------------------------|
E|-------------------------|

e|----------------|
B|-9/8-888-888-88-|-play this 3x then
G|----------------|
D|----------------|
A|----------------|
E|----------------|

e|-------------------------|
B|-66666666-11111111111111-|
G|-------------------------|11's not 1's
D|-------------------------|
A|-------------------------|
E|-------------------------|

 "Wake up and face me"
 Lead guitar
e|-----------------|---------------------|
B|----10~~-----6-5-|----10~~-----6-5-3~~-|
G|-7~~-----3-5-----|-7~~-----3-5---------|
D|-----------------|---------------------|
A|-----------------|---------------------|
E|-----------------|---------------------|
Rhythm Guitar- play this twice and strum G5 afterward
|--------------------------------|
|--------------------------------|
|--------------------------------|
|---------3-3-33----------5-5-55-|
|-5-5-55--1-1-11--3-3-33--3-3-33-|
|-3-3-33----------1-1-11---------|

 "Maybe you're better off this way"
e|-------------------|
B|----7--------7-----|
G|-5-7-7~~--5-7-7~~--|
D|-------------------|
A|-------------------|
E|-------------------|-play until Maynard screams "MAYBE YOU'RE BETTER OFF"

 Final "Wake up and face me"
 Lead Guitar-play this twice
e|-------------------------------------------|
B|---10~-10/10---10~-10/11/10--------6-5-6/5-|
G|-7~----------7~-------------3-5-3/5--------|
D|-------------------------------------------|
A|-------------------------------------------|
E|-------------------------------------------|

 Rhythm Guitar-play this twice
e|-------------------------------------|
B|-------------------------------------|
G|-------------------------------------|
D|----------33333333----------55555555-|
A|-55555555-11111111-33333333-33333333-|
E|-33333333----------11111111----------|

 "Go ahead and play dead"
e|-------------------------------------------------------------------------|
B|-------------------------------------------------------------------------|
G|-1212121212121212-1414141414141414-1515151515151515-14141414141414-15/14-|
D|-------------------------------------------------------------------------|
A|-------------------------------------------------------------------------|
E|-play this twice and then------------------------------------------------|

e|--------|
B|--------|
G|--12~~~-|
D|--------|
A|--------|
E|--------|

For the "passive agressive bullshit" part all you do is play the intro riff, but it's 
to hear over the piano.

That's the whole song, if I missed anything feel free to comment; I'M ONLY HUMAN



************************************

| ~  Vibrato
| /  Slide up

************************************

            
            
Suggest correction
Creating personal tab
Creating personal tab
You can edit any tab online and save it as your Personal.

You can edit, replace or remove any tab part or add personal notes – all changes will be seen only by you.

Personal tabs can be accessed anytime from any device, even offline.
Learn more »
comments
print report bad tab
10 comments total. Showing first comments.
0 reply
fatally-x-yours 10 Sep 11, 2006 01:31 PM

woo this version is good too! this is sucha good song i love apc! :) thanks xx

0 reply
Bryce-433 61 Oct 27, 2006 05:09 PM

Yes it is a good song and you're welcome

0 reply
musestripes 10 Jul 17, 2007 02:29 PM

sounds great! thanks man I love this band

guest
You may want to rate the tab now too:
select rating
Wanna post a correction for this tab? Suggest correction