Oops, an error
Loading. Please wait.

Rose Tab

version 1
version 1

Whole song

Interactive

7,871 views 9 this week
1 commentread comment
1 2 3 4 5
accurate
x 4
add to favorites
launch autoscroll
font size
0
reset
how to read this tab
guitar tuner
Tab Pro tools
  • play this tab
  • loop segment
  • change instrument
  • show fretboard
  • metronome
Autoscroll
slow
fast
+/-
esc
set tempo
stop
Contributor
Tabbers playing skills
tza
advanced ++
Rose-A Perfect Circle
Mer De Noms

Tune Down: C# F# B E G# C#

( ) = harmonics

gtr 1. acoustic w/ delay

e---------0----------0----------0----------------------------
b------7----------7----------7---------7---------------------
g---0----------0----------0----------0-------0---------------
d-4----------4----------4----------4-------4-----------------
a----------------------------------------5-------------------
e------------------------------------------------------------

verses 1 and 2

gtr 1. riff a x2 ...don?t , disturb, the beast......

e---------0----------0----------0----------------------------
b------7----------7----------7---------7---------------------
g---0----------0----------0----------0-----------------------
d-4----------4----------4----------4-------------------------
a----------------------------------------5-------------------
e------------------------------------------------------------

gtr 2. riff a1 (synth) x2

e------------------------------------------------------------
b------------------------------------------------------------
g------------------------------------------------------------
d---------7\---------9\---------7\----/4---------------------
a-----/9---------/9---------/9-----------5-------------------
e-2----------2----------2----------2-------------------------

riff b  gtr. 2 ...rose.....stay....frozen.....

e------------------------------------------------------------
b------------------------------------------------------------
g------------------------------------------------------------
d------------------------------------------------------------
a------------------------------------------------------------
e-3--(3)--------3--(3)--------3--(3)--------3--(3b)----------

e------------------------------------------------------------
b------------------------------------------------------------
g------------------------------------------------------------
d------------------------------------------------------------
a------------------------------------------------------------
e-3--(3)--------3--(3)--------3--(3)--------3--(3)----2------

riff c gtr 1.

e------------------------------------------------------------
b-------5-----------5-----------5-------------5--------------
g-----0-----------0-----------0-----------0-----0------------
d---4-----------4-----------4-----------4---------4----------
a-5-----------5-----------5-----------5-------------5--------
e------------------------------------------------------------

guitar solo gtr 3. w/ digi-tech whammy pedal up 1 octave

e------------------------------------------------------------
b-2/14-------14-------14h15/19\15-14h15-14-------------------
g--------------------------------------------16---16---------
d------------------------------------------------------------
a------------------------------------------------------------
e------------------------------------------------------------

gtr 1.

e------------------------------------------------------------
b-------0----------0--------0------------------0-------------
g-----4----------4--------4---------------4------4-----------
d---4----------4--------4--------------------------4---------
a------------------------------------------------------------
e-2----------2--------2-----------------2------------0-------

gtr 3.

e------------------------------------------------------------
b-14---------14-------14h15/19\15-14h15-14-------------------
g-------------------------------------------16---16----------
d------------------------------------------------------------
a------------------------------------------------------------
e------------------------------------------------------------

gtr 1. w/ riff c

gtr 3.

e-14-------14----------14------------14h15p14----------------
b-----17--------17-----------17---------------17p15p14--14---
g------------------------------------------------------------
d------------------------------------------------------------
a------------------------------------------------------------
e------------------------------------------------------------

chorus: gtr 2. w/ riff a1

fig 1. ...doe in the headlights.....x2

e------------------------------------------------------------
b------------------------------------------------------------
g------------------------------------------------------------
d-x-x-11--14\--x-x-11--16\--x-x-11--14\--x-x-11\7--7---------
a-x-x--9--12\--x-x--9--14\--x-x--9--12\--x-x--9\5--5---------
e------------------------------------------------------------

pm ...push comes to pull....
e------------------------------------------------------------
b------------------------------------------------------------
g----------------------------------------------7-------------
d---------7-7---------9-9---------7-7----------7-------------
a-9-9-9-9-----7-9-9-9-----9-9-9-9-----7-9-9-5--5-------------
e------------------------------------------------------------

..self destructin?...
e------------------------------------------------------------
b------------------------------------------------------------
g------------------------------------------------------------
d-------------------7-7-7-7-----------------9-9-9-9-7--------
a-7/9-9-9-9-9-9-9-9---------9-9-9-9-9-9-9-9-----------9-9-9--
e------------------------------------------------------------

w/ slow phaser
e------------------------------------------------------------
b------------------------------------------------------------
g------------------------------------------------------------
d---------7-7-7-7-7-9-9-9-11-14-14-14-14-12------------------
a-9-9-9-9----------------------------------------------------
e------------------------------------------------------------

w/ riff b



e-----7~~~~~~~~-------7~~~~~~~~------7--8~~~----7-12-----7---
b------------------------------------------------------------
g------------------------------------------------------------
d------------------------------------------------------------
a------------------------------------------------------------
e-3------------0-3-------------0-3----------3--------3-----0-

interlude riff c x2

chorus w/ riff a1 and fig 1 x4

outro: 30 sec. of violins


that?s all

trevor jones
timmy91199@yahoo.ca
comments
print report bad tab
1 comment total.
0 reply
TabMat wrote on April 1 2002, 12:00 am

check out TabMat's Pearl Jam's Black,please

I want to post or [tab]
guest
You may want to rate the tab now too:
select rating
Please do not post tabs as comments. Select "correction" instead!