Oops, an error
Loading. Please wait.

The Noose bass

version 1
version 1

Whole song

Interactive

10,021 views 3 this week
5 commentsread comments
1 2 3 4 5
x 4
add to favorites
×
Save as Personal and add changes to this tab that will be seen only by you. Learn more ›
×
You can save this tab as Personal to edit and correct it or add notes. All changes will be seen only by you. Learn more »
launch autoscroll
font size
0
reset
guitar tuner
edit
Autoscroll
slow
fast
+/-
esc
set tempo
stop
Not bad for my first tab. feel free to update it, take it as a startin point.
oh yeah, make sure you have drop-D tuning  -- PeaRce


INTRO
G----------------------------------------|
D----------------------------------------|    (very faint)
A-----66666666666666666666--4444444444---|  (listen to timing)
D----------------------------------------|

CHORUS 1
G--------------------------------------------------------------------|
D--------------------------------------------------------------------| palm
A--6-6-6-6-6-6-6-6-4-4-4-4-4-4-4-4-9-9-9-9-9-9-9-9-9-9-9-9-9-9-9-9---| mute
D--------------------------------------------------------------------|

G--------------------------------------------------------------------------|
D--------------------------------------------------------------------------|
A--6-6-6-6-6-6-6-6-4-4-4-4-4-4-4-4-----------------------------------------|
D-----------------------------------4-4-4-4-4-4-4-4-6-6-6-6-6-6-6-6--------|

FIG 1
G---------------------------------------------------------|
D---------------------------------------------------------|
A-------------------------------------------------1-------|  
D--4-4-4-4-4-4-4-4-6-6-6-6-6-6-6-6-1--11-11-1/3-1---1-1---| 

CHORUS 2
G-----------------------------------------------------|    
D-----------------------------------------------------|   
A-----------------------------------------------------|
D-1-11-11-11-10-00-00-00-04-44-44-44-4-44-44-44-44----|

G-----------------------------------------------------|
D-----------------------------------------------------|
A-----------------------------------------------------|
D-1-11-11-11-10-00-00-00-04-44-44-44-46-66-66-66-6----|

And thats about it I reckon. Just listen to the timing, the bass is quiet in
certain parts of this song.
Suggest correction
Creating personal tab
Creating personal tab
You can edit any tab online and save it as your Personal.

You can edit, replace or remove any tab part or add personal notes – all changes will be seen only by you.

Personal tabs can be accessed anytime from any device, even offline.
Learn more »
comments
print report bad tab
5 comments total. Showing first comments.
0 reply
guitarman47 132 Dec 12, 2005 07:16 AM

last time i checked, APC tuned down 1 1/2 steps for this cd

+2 reply
whats in a name 154 Jan 01, 2009 09:43 AM

if you're playing the same note, it still sounds the same. because. ITS THE SAME NOTE. it doesn't matter what tuning you use if you still are playing THE SAME NOTE.

but anyways, in the chorus two, where you have '0' marked, it should be a Db rather than D. so instead just hit fret four on the A string.

otherwise sounds pretty good

G-----------------------------------------------------|
D-----------------------------------------------------|
A-------------4-44-44-44-4----------------------------|
D-1-11-11-11-1------------4-44-44-44-4-44-44-44-44----|

0 reply
whats in a name 154 Jan 01, 2009 09:44 AM

that little tab was an example for your 'chorus 2' section, btw

guest
Wanna post a correction for this tab? Suggest correction