Oops, an error
Loading. Please wait.

The Noose Tab

version 1
version 1

Whole song

Interactive

4,451 views 54 this week
no commentswrite comment
1 2 3 4 5
accurate
x 3
add to favorites
launch autoscroll
font size
0
reset
how to read this tab
guitar tuner
Tab Pro tools
  • play this tab
  • loop segment
  • change instrument
  • show fretboard
  • metronome
Autoscroll
slow
fast
+/-
esc
set tempo
stop
Contributor
Tuning
D# G# C# F# A# D#
"The Noose" by A Perfect Circle, album: "Thirteenth Step"

Intro:

Eb|--12-------|-12-------|-12-------|-12-------|   |-----------------------|
Bb|-----------|----------|----------|----------|   |-----------------------|
Gb|-----------|----------|----------|----------|   |-----------------------|
Db|-----------|----------|----------|----------|   |--5--------4--------2--|
Ab|--14-14-14-|-12-12-12-|-14-14-14-|-14-14-14-|   |-----------------------|
Db|-----------|----------|----------|----------|   |-----------------------|

Verse:

Eb|-------------|------------|------------|------------|     |-----|
Bb|-------------|------------|------------|------------|     |-----| Repeat this note
Gb|-------------|------------|------------|------------|     |--9--| between all
Db|-------------|------------|------------|------------|     |-----| this part
Ab|-------------|------------|------------|------------|     |-----|
Db|--------9----|-5-5-5-7----|-5-5-5-7----|-5-5-5-7----|     |-----|

   So glad to see you have,
   Overcome them, completely silent now
   With heaven's help
   You cast your demons out

Eb|-----|--------------------------|----|----------------|   |----------------------------------|
Bb|--12-|-10-10-10--10-13-13-12-12-|-10-|----------------|   |------------------------------12--|
Gb|-----|--------------------------|----|-9-9-9-9-9-9-9--|   |--9-9-9--9-12-9-12-9-9-9-11-9-----|
Db|-----|--------------------------|----|----------------|   |----------------------------------|
Ab|-----|--------------------------|----|-----7-7-7-7-7--|   |----------------------------------|
Db|-----|--------------------------|----|----------------|   |----------------------------------|

   And not to put your halo down
   Arround your neck and tug you off your cloud

Pre-Chorus:

Guitar 1

Eb|------------------------------------|-----------------------------------|
Bb|--12--12-12--12-12--12-12--12-12-12-|-10--10-10--10-10--10-13-13-12-12--|
Gb|------------------------------------|-----------------------------------|
Db|------------------------------------|-----------------------------------|
Ab|------------------------------------|-----------------------------------|
Db|------------------------------------|-----------------------------------|

Eb|------------------------------------|-----------------------------------|
Bb|--10--10-10--10-10--10-10--10-10-10-|--------------------------12-10----|
Gb|--9------9------9------9------9--9--|-9------9------9------9---------9--|
Db|------------------------------------|-----------------------------------|
Ab|------------------------------------|-----------------------------------|
Db|------------------------------------|-----------------------------------|

Guitar 2

Eb|------------------|-----------------|-----------------|------------------|
Bb|------------------|-----------------|-----------------|------------------|
Gb|------------------|-----------------|-----------------|------------------|
Db|------------------|-----------------|-----------------|------------------|
Ab|------------------|-----------------|-----------------|------------------|
Db|--2-2-2-2-2-2-2-2-|-0-0-0-0-0-0-0-0-|-5-5-5-5-5-5-5-5-|-5-5-5-5-5-5-5-5--|

   But I'm more than just a little curious
   How you're planning to go about making your amends
   To the dead

Guitar 1

Eb|-----12-----12---------12--------12-|----12----12-----------------------|
Bb|--12-----12------12-12-----12-12----|-10----10----10-10-10-13-13-12-12--|
Gb|------------------------------------|-----------------------------------|
Db|------------------------------------|-----------------------------------|
Ab|------------------------------------|-----------------------------------|
Db|------------------------------------|-----------------------------------|

Eb|------------------12pbr-------------|-----------------------------------|
Bb|--10--10-10--10-10--10-10--10-10-10-|-10\-------------------------------|
Gb|------------------------------------|----8\7----7----7----7----7--------|
Db|------------------------------------|-----------------------------------|
Ab|------------------------------------|-----------------------------------|
Db|------------------------------------|-----------------------------------|

Guitar 2

Eb|------------------|-----------------|-----------------|------------------|
Bb|------------------|-----------------|-----------------|------------------|
Gb|------------------|-----------------|-----------------|------------------|
Db|------------------|-----------------|-----------------|------------------|
Ab|------------------|-----------------|-----------------|------------------|
Db|--2-2-2-2-2-2-2-2-|-0-0-0-0-0-0-0-0-|-5-5-5-5-5-5-5-5-|-7-7-7-7-7-7-7-7--|

   To the dead

Verse 2:

Eb|------------------|-----------------|-----------------|------------------|   |-----| Repeat 
Bb|------------------|-----------------|-----------------|------------------|   |-----| this note
Gb|--------4---------|-----------------|-----------------|------------------|   |--9--| between
Db|--5-5-5-----------|-5-5-5-5/7-------|-5-5-5-5/7-------|-5-5-5/7----------|   |-----| all
Ab|------------------|-----------------|-----------------|------------------|   |-----| this
Db|------------------|-----------------|-----------------|------------------|   |-----| verse

Eb|------------------|-----------------|-----------------|------------------|
Bb|------------------|-----------------|-----------------|------------------|
Gb|--------4---------|-----------------|-----------------|------------------|
Db|--5-5-5-----------|-5-5-5-5/7-------|-----------------|------------------|
Ab|------------------|-----------------|-7---------------|-7--7--7--7-------|
Db|------------------|-----------------|-----------------|------------------|

   Recall the deeds as if they're all
   Someone else's atrocious stories
   Now you stand reborn before us all
   So glad to se you well

Pre-Chorus:

(This is another instrument or maybe another guitar, it sounds through all the Pre-Chorus)

Eb|--------------------|
Bb|--------------------|
Gb|--11----9-----7-----|
Db|--------------------|
Ab|--------------------|
Db|--------------------|

Guitar 1

Eb|------------------------------------|-----------------------------------|
Bb|--12--12-12--12-12--12-12--12-12-12-|-10--10-10--10-10--10-13-13-12-12--|
Gb|------------------------------------|-----------------------------------|
Db|------------------------------------|-----------------------------------|  The rest is quiet
Ab|------------------------------------|-----------------------------------|
Db|------------------------------------|-----------------------------------| 

Guitar 2

Eb|------------------|-----------------|-----------------|------------------|
Bb|------------------|-----------------|-----------------|------------------|
Gb|------------------|-----------------|-----------------|------------------|
Db|------------------|-----------------|-----------------|------------------|
Ab|------------------|-----------------|-----------------|------------------|
Db|--2-2-2-2-2-2-2-2-|-0-0-0-0-0-0-0-0-|-5-5-5-5-5-5-5-5-|-5-5-5-5-5-5-5-5--|

   But I'm more than just a little curious
   How you're planning to go about making your amends
   To the dead

Guitar 1

Eb|-----12----12----------12-12----12--|------------------------------------|
Bb|--12----12----12-12-12-------12-----|-10-10-10-10--10-10-10-13-13-12-12--|
Gb|------------------------------------|-9--9--9--9---9--9--9--12-12-11-11--|
Db|------------------------------------|------------------------------------|
Ab|------------------------------------|------------------------------------|
Db|------------------------------------|------------------------------------|

Eb|------------------------------------|------------------------------------|
Bb|------------------------------------|--------12--------------------------|
Gb|--9--9--9---9--12--9--12--9--9---9--|-11--9------------------------------|
Db|------------------------------------|------------------------------------|
Ab|------------------------------------|------------------------------------|
Db|------------------------------------|------------------------------------|

Guitar 2

Eb|------------------|-----------------|-----------------|------------------|
Bb|------------------|-----------------|-----------------|------------------|
Gb|------------------|-----------------|-----------------|------------------|
Db|------------------|-----------------|-----------------|------------------|
Ab|------------------|-----------------|-----------------|------------------|
Db|--2-2-2-2-2-2-2-2-|-0-0-0-0-0-0-0-0-|-5-5-5-5-5-5-5-5-|-7-7-7-7-7-7-7-7--|

Chorus:

Guitar 1

Eb|---------------------------|--------------------------|------------------|------------------|
Bb|---------------------------|--------------------------|------------------|------------------|
Gb|--16-16-16-16-16-16-16-16--|-14-14-14-14-17-17-16-16--|-9-9-9-9-9-9-9-9--|-9-9-9-9-9-9-9-9--|
Db|--x--x--x--x--x--x--x--x---|-x--x--x--x--x--x--x--x---|-x-x-x-x-x-x-x-x--|-x-x-x-x-x-x-x-x--|
Ab|--14-14-14-14-14-14-14-14--|-12-12-12-12-15-15-14-14--|-7-7-7-7-7-7-7-7--|-7-7-7-7-7-7-7-7--|
Db|---------------------------|--------------------------|------------------|------------------|

Eb|---------------------------|--------------------------|------------------|------------------|
Bb|---------------------------|--------------------------|------------------|------------------|
Gb|--16-16-16-16-16-16-16-16--|-14-14-14-14-17-17-16-16--|-9-9-9-9-9-9-9-9--|-7-7-7-7-9-9-10-9-|
Db|--x--x--x--x--x--x--x--x---|-x--x--x--x--x--x--x--x---|-x-x-x-x-x-x-x-x--|-x-x-x-x-x-x-x--x-|
Ab|--14-14-14-14-14-14-14-14--|-12-12-12-12-15-15-14-14--|-7-7-7-7-7-7-7-7--|-5-5-5-5-7-7-8--7-|
Db|---------------------------|--------------------------|------------------|------------------|

Guitar 2

Eb|------------------|-----------------|-----------------|------------------|
Bb|------------------|-----------------|-----------------|------------------|
Gb|------------------|-----------------|-----------------|------------------|
Db|--2-2-2-2-2-2-2-2-|-0-0-0-0-0-0-0-0-|-5-5-5-5-5-5-5-5-|-5-5-5-5-5-5-5-5--|
Ab|--2-2-2-2-2-2-2-2-|-0-0-0-0-0-0-0-0-|-5-5-5-5-5-5-5-5-|-5-5-5-5-5-5-5-5--|
Db|--2-2-2-2-2-2-2-2-|-0-0-0-0-0-0-0-0-|-5-5-5-5-5-5-5-5-|-5-5-5-5-5-5-5-5--|

Eb|------------------|-----------------|-----------------|------------------|
Bb|------------------|-----------------|-----------------|------------------|
Gb|------------------|-----------------|-----------------|------------------|
Db|--2-2-2-2-2-2-2-2-|-0-0-0-0-0-0-0-0-|-5-5-5-5-5-5-5-5-|-7-7-7-7-7-7-7-7--|
Ab|--2-2-2-2-2-2-2-2-|-0-0-0-0-0-0-0-0-|-5-5-5-5-5-5-5-5-|-7-7-7-7-7-7-7-7--|
Db|--2-2-2-2-2-2-2-2-|-0-0-0-0-0-0-0-0-|-5-5-5-5-5-5-5-5-|-7-7-7-7-7-7-7-7--|

   With your halo sleeping down
   Your halo sleeping...

Guitar 1

Eb|------------------|-----------------|-----------------|------------------|
Bb|------------------|-----------------|-----------------|------------------|
Gb|--9/10\9--9/10\9--|-9/10\9--9-9-9-9-|-9/10\9--9/10\9--|-9/10\9--14-14-14-|
Db|--x-x--x--x-x--x--|-x-x--x--x-x-x-x-|-x-x--x--x-x--x--|-x-x--x--x--x--x--|
Ab|--7/8-\7--7/8-\7--|-7/8-\7--7-7-7-7-|-7/8-\7--7/8-\7--|-7/8-\7--12-12-12-|
Db|------------------|-----------------|-----------------|------------------|

Guitar 2

Eb|------------------|-----------------|-----------------|------------------|
Bb|------------------|-----------------|-----------------|------------------|
Gb|------------------|-----------------|-----------------|------------------|
Db|--2-2-2-2-2-2-2-2-|-0-0-0-0-0-0-0-0-|-5-5-5-5-5-5-5-5-|-5-5-5-5-5-5-5-5--|
Ab|--2-2-2-2-2-2-2-2-|-0-0-0-0-0-0-0-0-|-5-5-5-5-5-5-5-5-|-5-5-5-5-5-5-5-5--|
Db|--2-2-2-2-2-2-2-2-|-0-0-0-0-0-0-0-0-|-5-5-5-5-5-5-5-5-|-5-5-5-5-5-5-5-5--|

Eb|------------------|-----------------|-----------------|------------------|
Bb|------------------|-----------------|-----------------|------------------|
Gb|------------------|-----------------|-----------------|------------------|
Db|--2-2-2-2-2-2-2-2-|-0-0-0-0-0-0-0-0-|-5-5-5-5-5-5-5-5-|-7-7-7-7-7-7-7-7--|
Ab|--2-2-2-2-2-2-2-2-|-0-0-0-0-0-0-0-0-|-5-5-5-5-5-5-5-5-|-7-7-7-7-7-7-7-7--|
Db|--2-2-2-2-2-2-2-2-|-0-0-0-0-0-0-0-0-|-5-5-5-5-5-5-5-5-|-7-7-7-7-7-7-7-7--|

   With your halo sleeping down
   (But I'm more than just a little curious. How you're planning to go about making your amends)
   Your halo sleeping..
   (But I'm more than just a little curious. How you're planning to go about making your amends)

Outro:

Eb|--12-------12--------|-12--------------------|------|-----|-----|-------|
Bb|-----12-12----12-12--|----10-10-13-13-12-12--|--10--|-----|-----|-------|
Gb|---------------------|-----------------------|------|--7--|--9--|--9\---|
Db|---------------------|-----------------------|------|-----|-----|-------|
Ab|---------------------|-----------------------|------|-----|-----|-------|
Db|---------------------|-----------------------|------|-----|-----|-------|

So.... that's how I think the song goes
If you have any idea to improve the tab, or if there's something wrong, let me know
I really hope I've helped you
Thank you!!!!
comments
We did not receive enough feedback on this tab! Please rate:
print report bad tab
1 2 3 4 5
I want to post or [tab]
guest
You may want to rate the tab now too:
select rating
Please do not post tabs as comments. Select "correction" instead!