Oops, an error
Loading. Please wait.

The Outsider Tab

version 4
version 4
58,158 views 99 this week
no commentswrite comment
1 2 3 4 5
x 8
add to favorites
×
Save as Personal and add changes to this tab that will be seen only by you. Learn more ›
×
You can save this tab as Personal to edit and correct it or add notes. All changes will be seen only by you. Learn more »
save as personal
new!
launch autoscroll
font size
0
reset
how to read this tab
guitar tuner
backing track
0:00
0:00
Autoscroll
slow
fast
+/-
esc
set tempo
stop
Band- A Perfect Circle
Song- The Outsider

Gtr I (C# F# B E G# C#) - 'Lead'
Gtr II (C# F# B E G# C#) - 'Rhythm'
Gtr III (C# F# B E G# C#) - 'Clean'

[Intro]            [Intro]
  Q=86
  E5                                  Dsus2               C6
 6/8
  Gtr III
  E S S E E S S E   E S S E E S E S   E S S E E S S S S   E S S E E +S   E S

e|-----------------|-----------------|-------------------|--------------------|
B|-----------------|-----------------|-------------------|--------------------|
G|---9---9---9---9-|---9---9---9-----|---9---9---9---9---|---9---9------------|
D|-----9-------9---|-----9-------9---|-----7-------7-----|-----7--------------|
A|-7-------7-------|-7-------7-----0-|-5-------5-------5-|---------------10s9-|
E|-----------------|-----------------|-------------------|-8-------8-(8)------|


  E5                                           Dsus2
  E S S E E S S E   E S S S S  S S S T T S S   E S S E E S S S S

e|-----------------|--------------------------|--------------------|
B|-----------------|--------------------------|--------------------|
G|---9---9---9---9-|---9---9---10p9---7h9p7---|---9---9---9---9s7--|
D|-----9-------9---|-----9----------9-------7-|-----7-------7------|
A|-7-------7-------|-7-------7----------------|-5-------5----------|
E|-----------------|--------------------------|--------------------|

[Verse]

    A           C           E5
                           4/4
  S E S +S  S S S +S  E.     W          +W           +W

e|------------------------||-!0--------|-(0)--------|-(0)----|
B|------------------------||-!0--------|-(0)--------|-(0)----|
G|-----6-(6)-----------9--||-----------|------------|--------|
D|-----------7------------||-!2--------|-(2)--------|-(2)----|
A|------------------------||-!2--------|-(2)--------|-(2)----|
E|-3s5---------5s8-(8)----||-!0--------|-(0)--------|-(0)----|

                E5
   W             W                                      +W
e|------------|-!0------------------------------------|-(0)---------|
B|------------|-!0------------------------------------|-(0)---------|
G|------------|---------------------------------------|-------------|
D|------------|-!2------------------------------------|-(2)---------|
A|------------|-!2------------------------------------|-(2)---------|
E|------------|-!0------------------------------------|-(0)---------|
 |
 | Gtr I
 |                                                       >
 | H    E Q.     E  +S   E  +S   S  +E   E  +S   E  E    H     H
e|------------|---------------------------------------|-------------|
B|------------|---------------------------------------|-------------|
G|--------9s==|=16-(16)-16-(16)-16-(16)-16-(16)-16-16-|-16----------|
D|------------|---------------------------------------|-------------|
A|--------7s==|=14-(14)-14-(14)-14-(14)-14-(14)-14-14-|-14----------|
E|------------|---------------------------------------|-------------|

   +W
e|-(0)------------------------------------|
B|-(0)------------------------------------|
G|----------------------------------------|
D|-(2)------------------------------------|
A|-(2)------------------------------------|
E|-(0)------------------------------------|
 |
 | Gtr I
 |  E   +S   E  +S   S  +E   E  +S   E  E
e|----------------------------------------|
B|----------------------------------------|
G|-16--(16)-16-(16)-16-(16)-16-(16)-16-16-|
D|----------------------------------------|
A|-14--(14)-14-(14)-14-(14)-14-(14)-14-14-|
E|----------------------------------------|


    W
e|---------------------------------------|
B|---------------------------------------|
G|---------------------------------------|
D|---------------------------------------|
A|---------------------------------------|
E|---------------------------------------|
 |
 |  E  +S   E  +S   S  +E   E  +S   E  E
e|---------------------------------------|
B|---------------------------------------|
G|-19-(19)-16-(16)-17-(17)-14-(14)-17-16-|
D|---------------------------------------|
A|-17-(17)-14-(14)-15-(15)-12-(12)-15-14-|
E|---------------------------------------|


[Pre-Chorus]

   E                                 C
  6/8
   Gtr I
    E    S  S  S  S  S  E    S  E     S  S  S  S  S  S  E  S  S  S  +S
e|---------------------------------|------------------------------------|
B|---------------------------------|------------------------------------|
G|-16---16-16-16-16-16-16---16-16\-|-14-14-14-14-14-14-14-14-14-14-(14)S|
D|---------------------------------|------------------------------------|
A|-14---14-14-14-14-14-14---14-14\-|-12-12-12-12-12-12-12-12-12-12-(12)S|
E|---------------------------------|------------------------------------|
 |
 | Gtr II
 |                        PM|                              PM|
 |  S S  S  S  S  S  E    S  S  E     S  S  S  S  S  S  E  S  S  E
e|---------------------------------|------------------------------------|
B|---------------------------------|------------------------------------|
G|---------------------------------|------------------------------------|
D|---------------------------------|------------------------------------|
A|-------------------7----0--0--7--|--------------------7--0--0--7------|
E|--0h3h=5--0h=3h=5----------------|--0h=3h=5--0h=3h=5------------------|


   A
    S  S  S  S  S  S  E  S  S  S  +S
e|--------------------------------------|
B|--------------------------------------|
G|-16-16-16-16-16-16-16-16-16-16-(16)S==|
D|--------------------------------------|
A|-14-14-14-14-14-14-14-14-14-14-(14)S==|
E|--------------------------------------|
 |
 |                       PM|
 |  S  S  S  S  S  S  E  S  S  E
e|--------------------------------------|
B|--------------------------------------|
G|--------------------------------------|
D|--------------------------------------|
A|--------------------7--0--0--7--------|
E|--0h=3h=5--0h=3h=5--------------------|


   C
    S  S  S  S  S  S  S  +S   S  S  E
e|---------------------------------------|
B|---------------------------------------|
G|-17-17-17-17-17-17-17-(17)-19-19-19\---|
D|---------------------------------------|
A|-15-15-15-15-15-15-15-(15)-17-17-17\---|
E|---------------------------------------|
 |
 |  S  S  S  S  S  S  S   S   S  S  S  S
e|---------------------------------------|
B|---------------------------------------|
G|---------------------------------------|
D|---------------------------------------|
A|---------------------------------------|
E|--0h=3h=5--0h=3h=5--3h==5---3--0--3--2-|


   E                                    G
    S  S  S  S  S  S  E  S  S  S  +S     S  S  S  S  S  S  E  S  S  S  +S
e|------------------------------------|--------------------------------------|
B|------------------------------------|--------------------------------------|
G|-16-16-16-16-16-16-16-16-16-16-(16)S|=14-14-14-14-14-14-14-14-14-14-(14)\--|
D|------------------------------------|--------------------------------------|
A|-14-14-14-14-14-14-14-14-14-14-(14)S|=12-12-12-12-12-12-12-12-12-12-(12)\--|
E|------------------------------------|--------------------------------------|
 |
 |                       PM|                                  PM|
 |  S  S  S  S  S  S  E  S  S  E         S  S  S  S  S  S  E  S  S  E
e|------------------------------------|--------------------------------------|
B|------------------------------------|--------------------------------------|
G|------------------------------------|--------------------------------------|
D|------------------------------------|--------------------------------------|
A|--------------------7--0--0--7------|--------------------7--0--0--7--------|
E|--0h=3h=5--0h=3h=5------------------|--0h=3h=5--0h=3h=5--------------------|


   C
    S  S  S  S  S  S  E  S  S  S  +S
e|------------------------------------|
B|------------------------------------|
G|-12-12-12-12-12-12-12-12-12-12-(12)S|
D|------------------------------------|
A|-10-10-10-10-10-10-10-10-10-10-(10)S|
E|------------------------------------|
 |
 |                       PM|
 |  S  S  S  S  S  S  E  S  S  E
e|------------------------------------|
B|------------------------------------|
G|------------------------------------|
D|------------------------------------|
A|--------------------7--0--0--7------|
E|--0h=3h=5--0h=3h=5------------------|

[Chorus 1]

   A                                    E5
    S  S  S  S  S  S  S  +S  S S E      E S S E E S S E
e|-----------------------------------||-----------------|
B|-----------------------------------||-----------------|
G|-11-11-11-11-11-11-11-(11)S9-9-9---||---9---9---9---9-|
D|-----------------------------------||-----9-------9---|
A|--9--9--9--9--9--9--9--(9)S7-7-7---||-7-------7-------|
E|-----------------------------------||-----------------|
 |
 |                                      Gtr III
 |  S  S  S  S  S  S  S   S  S S S S    E S S E E S S E
e|-----------------------------------||-----------------|
B|-----------------------------------||-----------------|
G|-----------------------------------||---9---9---9---9-|
D|-----------------------------------||-----9-------9---|
A|-----------------------------------||-7-------7-------|
E|--0h=3h=5--0h=3h=5--3h==5--3-0-3-2-||-----------------|


                       Dsus2
   E S S E E S S S S   E S S E E S S S S
e|-------------------|-------------------|
B|-------------------|-------------------|
G|---9---9---9---9---|---9---9---9---9---|
D|-----9-------9-----|-----7-------7-----|
A|-7-------7-------0-|-5-------5-------5-|
E|-------------------|-------------------|
 |
 | E S S E E S S S S   E S S E E S S S S
e|-------------------|-------------------|
B|-------------------|-------------------|
G|---9---9---9---9---|---9---9---9---9---|
D|-----9-------9-----|-----7-------7-----|
A|-7-------7-------0-|-5-------5-------5-|
E|-------------------|-------------------|


   C6                   E5
   E S S E E +S   E S   Q     E  E  +S   E    +S
e|--------------------|----------------------------|
B|--------------------|----------------------------|
G|---9---9------------|---------13-(13)-14---(14)--|
D|-----7--------------|----------------------------|
A|---------------10s9-|---------11-(11)-12---(12)--|
E|-8-------8-(8)------|----------------------------|
 |
 | E S S E E +S   E S   E S S E  E   S   S E
e|--------------------|----------------------------|
B|--------------------|----------------------------|
G|---9---9------------|---9---9------9-----9-------|
D|-----7--------------|-----9------------9---------|
A|---------------10s9-|-7--------7-----------------|
E|-8-------8-(8)------|----------------------------|


                                       Dsus2
    Q      +Q           E      +E       H          +Q
e|-----------------------------------|-----------------------|
B|-----------------------------------|-----------------------|
G|-16-----(16)--------/19-----(19)S==|=16---------(16)-------|
D|-----------------------------------|-----------------------|
A|-14-----(14)--------/17-----(17)S==|=14---------(14)-------|
E|-----------------------------------|-----------------------|
 |
 |  E S S   S  S  S S   S T T   S  S    E S S E E   S  S S S
e|-----------------------------------|-----------------------|
B|-----------------------------------|-----------------------|
G|----9-----9----10p9-----7h9p==7----|----9---9-----9----9s7-|
D|------9---------------9----------7-|------7----------7-----|
A|--7----------7---------------------|--5-------5------------|
E|-----------------------------------|-----------------------|


      A                 C                    E5
    S  +E   S  +E     S  +E       E   +S      H       E  +E
e|----------------------------------------||------------------|
B|----------------------------------------||------------------|
G|-21-(21)-21-(21)S==19-(19)-----19--(19)S||=16-----/19-(19)--|
D|----------------------------------------||------------------|
A|-19-(19)-19-(19)S==17-(17)-----17--(17)S||=14---------------|
E|----------------------------------------||------------------|
 |
 |  S   E   S  +S  S  S   S  +S   E.          H.
e|----------------------------------------||-!0---------------|
B|----------------------------------------||-!0---------------|
G|----------6--(6)----------------9-------||------------------|
D|-----------------7----------------------||-!2---------------|
A|----------------------------------------||-!2---------------|
E|--3s==5-------------5s==8--(8)----------||-!0---------------|


    T   T  S  E  Q   +S    E.    T   T  S  E  Q   +S    E.
e|----------------------------|----------------------------|
B|----------------------------|----------------------------|
G|-17h=19p17-16-16--(16)-/19--|-17h=19p17-16-16--(16)-/19--|
D|----------------------------|----------------------------|
A|----------------------------|----------------------------|
E|----------------------------|----------------------------|
 |
 | +H.                          +H.
e|----------------------------|----------------------------|
B|----------------------------|----------------------------|
G|----------------------------|----------------------------|
D|-(2)------------------------|-(2)------------------------|
A|-(2)------------------------|-(2)------------------------|
E|-(0)------------------------|-(0)------------------------|


[Bridge]
                                E5                          F5E5
                               4/4
    T   T  S  E  E.  S  +Q       E     H.                      +E
e|---------------------------||--------------------------------------|
B|---------------------------||--------------------------------------|
G|-17h=19p17-16-16--17-(17)s=||=16---(19)---------------------(19)---|
D|---------------------------||--------------------------------------|
A|---------------------------||--------------------------------------|
E|---------------------------||--------------------------------------|
 |
 |                              Gtr II
 |                               PM|      PM|   PM|   PM|
 | +H.                           S S   S  S S S S S S S S S E   E
e|---------------------------||--------------------------------------|
B|---------------------------||--------------------------------------|
G|---------------------------||--------------------------------------|
D|-(2)-----------------------||--2-2------2-2---2-2---2-2---3---2----|
A|-(2)-----------------------||--2-2------2-2---2-2---2-2---3---2----|
E|-(0)-----------------------||--0-0------0-0---0-0---0-0---1---0----|


   E5                      F5E5
   Gtr II
   PM|   PM|   PM|   PM|
   S S S S S S S S S S S S E E
e|-----------------------------|
B|-----------------------------|
G|-----------------------------|
D|-2-2---2-2---2-2---2-2---3-2-|
A|-2-2---2-2---2-2---2-2---3-2-|
E|-0-0---0-0---0-0---0-0---1-0-|


   E5                      F5E5  G5 E5 F5    A5 F5E5
   PM|   PM|   PM|   PM|            PM       PM
   S S S S S S S S S S S S E E   E. E. E +S  E. E E
e|-----------------------------|--------------------|
B|-----------------------------|--------------------|
G|-----------------------------|--------------------|
D|-2-2---2-2---2-2---2-2---3-2-|-5--2--3-(3)----3-2-|
A|-2-2---2-2---2-2---2-2---3-2-|-5--2--3-(3)-0--3-2-|
E|-0-0---0-0---0-0---0-0---1-0-|-3--0--1-(1)-0--1-0-|


   E5                      F5E5  E5                      F5E5
   PM|   PM|   PM|   PM|         PM|   PM|   PM|   PM|
   S S S S S S S S S S S S E E   S S S S S S S S S S S S E E
e|-----------------------------|-----------------------------|
B|-----------------------------|-----------------------------|
G|-----------------------------|-----------------------------|
D|-2-2---2-2---2-2---2-2---3-2-|-2-2---2-2---2-2---2-2---3-2-|
A|-2-2---2-2---2-2---2-2---3-2-|-2-2---2-2---2-2---2-2---3-2-|
E|-0-0---0-0---0-0---0-0---1-0-|-0-0---0-0---0-0---0-0---1-0-|


   E5                      F5E5  G5 E5 F5
   PM|   PM|   PM|   PM|            PM          ~
   S S S S S S S S S S S S E E   E. E. E +S  E. Q
e|-----------------------------|-------------------|
B|-----------------------------|-------------------|
G|-----------------------------|-------------------|
D|-2-2---2-2---2-2---2-2---3-2-|-5--2--3-(3)----7--|
A|-2-2---2-2---2-2---2-2---3-2-|-5--2--3-(3)-------|
E|-0-0---0-0---0-0---0-0---1-0-|-3--0--1-(1)-4-----|


[Pre-Chorus]
   E                                 C
  6/8
   Gtr I
    E    S  S  S  S  S  E    S  E     S  S  S  S  S  S  E  S  S  S  +S
e|---------------------------------|------------------------------------|
B|---------------------------------|------------------------------------|
G|-16---16-16-16-16-16-16---16-16\-|-14-14-14-14-14-14-14-14-14-14-(14)S|
D|---------------------------------|------------------------------------|
A|-14---14-14-14-14-14-14---14-14\-|-12-12-12-12-12-12-12-12-12-12-(12)S|
E|---------------------------------|------------------------------------|
 |
 | Gtr II
 |                        PM|                              PM|
 |  S S  S  S  S  S  E    S  S  E     S  S  S  S  S  S  E  S  S  E
e|---------------------------------|------------------------------------|
B|---------------------------------|------------------------------------|
G|---------------------------------|------------------------------------|
D|---------------------------------|------------------------------------|
A|-------------------7----0--0--7--|--------------------7--0--0--7------|
E|--0h3h=5--0h=3h=5----------------|--0h=3h=5--0h=3h=5------------------|



   A
    S  S  S  S  S  S  E  S  S  S  +S
e|-------------------------------------|
B|-------------------------------------|
G|-16-16-16-16-16-16-16-16-16-16-(16)--|
D|-------------------------------------|
A|-14-14-14-14-14-14-14-14-14-14-(14)--|
E|-------------------------------------|
 |
 |                       PM|
 |  S  S  S  S  S  S  E  S  S  E
e|-------------------------------------|
B|-------------------------------------|
G|-------------------------------------|
D|-------------------------------------|
A|--------------------7--0--0--7-------|
E|--0h=3h=5--0h=3h=5-------------------|


   C
    S  S  S  S  S  S  S  +S   S  S  E
e|---------------------------------------|
B|---------------------------------------|
G|-17-17-17-17-17-17-17-(17)-19-19-19\---|
D|---------------------------------------|
A|-15-15-15-15-15-15-15-(15)-17-17-17\---|
E|---------------------------------------|
 |
 |                            PM|
 |  S  S  S  S  S  S  S   S   S  S  S  S
e|---------------------------------------|
B|---------------------------------------|
G|---------------------------------------|
D|---------------------------------------|
A|---------------------------------------|
E|--0h=3h=5--0h=3h=5--3h==5---3--0--3--2-|


   E                                    G
    S  S  S  S  S  S  E  S  S  S  +S     S  S  S  S  S  S  E  S  S  S  +S
e|------------------------------------|--------------------------------------|
B|------------------------------------|--------------------------------------|
G|-16-16-16-16-16-16-16-16-16-16-(16)S|=14-14-14-14-14-14-14-14-14-14-(14)\--|
D|------------------------------------|--------------------------------------|
A|-14-14-14-14-14-14-14-14-14-14-(14)S|=12-12-12-12-12-12-12-12-12-12-(12)\--|
E|------------------------------------|--------------------------------------|
 |
 |                       PM|                                  PM|
 |  S  S  S  S  S  S  E  S  S  E         S  S  S  S  S  S  E  S  S  E
e|------------------------------------|--------------------------------------|
B|------------------------------------|--------------------------------------|
G|------------------------------------|--------------------------------------|
D|------------------------------------|--------------------------------------|
A|--------------------7--0--0--7------|--------------------7--0--0--7--------|
E|--0h=3h=5--0h=3h=5------------------|--0h=3h=5--0h=3h=5--------------------|


   C                                    A
    S  S  S  S  S  S  E  S  S  S  +S     S  S  S  S  S  S  S  +S  S S E
e|------------------------------------|-----------------------------------||
B|------------------------------------|-----------------------------------||
G|-12-12-12-12-12-12-12-12-12-12-(12)S|=11-11-11-11-11-11-11-(11)S9-9-9---||
D|------------------------------------|-----------------------------------||
A|-10-10-10-10-10-10-10-10-10-10-(10)S|==9--9--9--9--9--9--9--(9)S7-7-7---||
E|------------------------------------|-----------------------------------||
 |
 |                       PM|
 |  S  S  S  S  S  S  E  S  S  E         S  S  S  S  S  S  S   S  S S S S
e|------------------------------------|-----------------------------------||
B|------------------------------------|-----------------------------------||
G|------------------------------------|-----------------------------------||
D|------------------------------------|-----------------------------------||
A|--------------------7--0--0--7------|-----------------------------------||
E|--0h=3h=5--0h=3h=5------------------|--0h=3h=5--0h=3h=5--3h==5--3-0-3-2-||

[Chorus 2]

   E5
   E S S E +S  S +S  S E   E S S E +S  S +S  S E
e|-----------------------|-------------------------|
B|-----------------------|-------------------------|
G|-----------------------|-------------------------|
D|-9-9-9-9-(9)-9-(9)-9-9-|-9-9-9-9-(9)-9-(9)-9-9---|
A|-7-7-7-7-(7)-7-(7)-7-7-|-7-7-7-7-(7)-7-(7)-7-7---|
E|-----------------------|-------------------------|
 |
 | E S S E  E     S  S E   E S S E  E     S  S S S
e|-----------------------|-------------------------|
B|-----------------------|-------------------------|
G|---9---9--------9----9-|---9---9--------9----9---|
D|-----9-------------9---|-----9-------------9-----|
A|-7--------7------------|-7--------7------------0-|
E|-----------------------|-------------------------|


   D5                        C5                G5 F#5  E5          D5    E5
   E S S E +S  S +S  S E     E S S S +S  E +S   E  S   E S S S +E  S +S  S E
e|-------------------------|-------------------------|-----------------------|
B|-------------------------|-------------------------|-----------------------|
G|-------------------------|-------------------------|-----------------------|
D|-7-7-7-7-(7)-7-(7)-7-7---|-5-5-5-5-(5)-5-(5)S12s11-|-9-9-9-9-(9)-7-(7)-9-9-|
A|-5-5-5-5-(5)-5-(5)-5-5---|-3-3-3-3-(3)-3-(3)S10s=9-|-7-7-7-7-(7)-5-(5)-7-7-|
E|-------------------------|-------------------------|-----------------------|
 |
 | E S S E  E     S  S S S   E S S E     E +S   E  S   E S S S +E  S +S  S E
e|-------------------------|-------------------------|-----------------------|
B|-------------------------|-------------------------|-----------------------|
G|---9---9--------9----9---|---9---9-----------------|---9---9-(9)---------9-|
D|-----7-------------7-----|-----7-------------------|-----9-------------9---|
A|-5--------5------------5-|-------------------10s=9-|-7-----------5-(5)-----|
E|-------------------------|-8-----------8-(8)-------|-----------------------|


   D5E5              G5 E5    D5            A5 D5
   S S S S S +E    S  S S E   E S S E +S  S  S S E
e|--------------------------|----------------------|
B|--------------------------|----------------------|
G|--------------------------|----------------------|
D|-7s9-9-9-9-(9)---9s12-9-9-|-7-7-7-7-(7)-7s14-7-7-|
A|-5s7-7-7-7-(7)---7s10-7-7-|-5-5-5-5-(5)-5s12-5-5-|
E|--------------------------|----------------------|
 |
 | E   S S E     E    S S E   E S S E  E     S S E
e|--------------------------|----------------------|
B|--------------------------|----------------------|
G|-----9---9----------9---9-|---9---9--------9---9-|
D|-------9--------------9---|-----7------------7---|
A|-7-------------7----------|-5--------5-----------|
E|--------------------------|----------------------|


     A5         C5       E5
   PM|        PM|
   S E S +E   S  E  E.   H.        +H.
e|---------------------|---------|-----------------||
B|---------------------|---------|-----------------||
G|---------------------|---------|-----------------||
D|---------------------|---------|-----------------||
A|---7-7-(7)\---10-10\-|---------|-----------------||
E|-0-5-5-(5)\-5--8--8\-|-0-------|-(0)-------------||
 |
 |                                      Gtr III
 | PM|        PM|
 | S E S +E   S  E  E.   H.         Q   Q  E +E
e|---------------------|---------|-----------------||
B|---------------------|---------|-----------------||
G|---------------------|---------|-----------------||
D|---------------------|---------|-----------------||
A|---7-7-(7)\---10-10\-|-2-------|---------2-(2)/--||
E|-0-5-5-(5)\-5--8--8\-|-0-------|---------0-(0)---||

[Interlude]

   Gtr III
    E.  E.  E. S E   E. E. E. +S  E   E E E E. E  S    E. E. E. S E
e|-----------------|----------------|----------------|---------------|
B|-----------------|----------------|----------------|---------------|
G|-----------------|----------------|----------------|---------------|
D|-----------------|----------------|---0---0--------|---------------|
A|-11--11--11----9-|-7--7--7--(7)-7-|----------9s=7--|-7--7--7--7-7/-|
E|--0---0---0--0-0-|-0--0--0--(0)-0-|-7---7----0-(0)-|-0--0--0--0-0--|


   Gtr III
    E.  E.  E.  S  S  S    E.  E.  E.  S  S  S
e|----------------------|----------------------|
B|----------------------|----------------------|
G|----------------------|----------------------|
D|----------------------|----------------------|
A|-11--11--11--12-12s14-|-14--14--14--14-14s12-|
E|--0---0---0---0--0----|--0---0---0---0--0----|


    E.  E.  E.  +S   T  T  S    E.  E.  E.  +S  S +S
e|---------------------------|-------------------------|
B|---------------------------|-------------------------|
G|---------------------------|-------------------------|
D|---------------------------|-------------------------|
A|-12--12--14--(14)-12h14p12-|-11--11--11--(11)-2-(2)/-|
E|--0---0---0---(0)--0-------|--0---0---0---(0)-0-(0)--|


    E.  E.  E. S  E   E. S E E S S E   E E E E. E  S    E. S E E S S E
e|------------------|----------------|----------------|-----------------|
B|------------------|----------------|----------------|-----------------|
G|-13--13--13----11-|-9--9-9-9-9-9-9-|----------------|-9--9-9-9-9-9-9/-|
D|------------------|----------------|---0---0--------|-----------------|
A|-11--11--11-----9-|-7--7-7-7-7-7-7-|----------9s=7--|-7--7-7-7-7-7-7/-|
E|--0---0---0--0--0-|-0--0-0-0-0-0-0-|-7---7----0-(0)-|-0--0-0-0-0-0-0--|


    E.  S  E  E.  S  S  S     E.  S  +E   E.  E  S
e|-------------------------|-----------------------|
B|-------------------------|-----------------------|
G|-13--13-13-13--14-14s16--|-16--16-(16)-16--16-16-|
D|-------------------------|-----------------------|
A|-11--11-11-11--12-12s14--|-14--14-(14)-14--14-14-|
E|--0---0--0--0---0--0-(0)-|--0---0--(0)--0---0--0-|


    S  S  E  E  E E  S  S     E  S  S  E  E  S  S  E
e|-------------------------|--------------------------|
B|-------------------------|--------------------------|
G|-16s19----16-19---22s21--|-21-21-21-21-21-21-21-21\-|
D|-------------------------|--------------------------|
A|-14s17----14-17---20s19--|-19-19-19-19-19-19-19-19\-|
E|--0-(0)-0--0--0-0--0-(0)-|--0--0--0--0--0--0--0--0--|


[Chorus 3]

       G5A5  G5A5E5          G5A5  G5A5E5          G5A5  G5A5E5
     Gtrs I, II
                   PM|                   PM|                   PM|
     S S S S S S E S S E   S S S S S S E S S E   S S S S S S E S S E
e||----------------------|---------------------|---------------------|
B||o---------------------|---------------------|---------------------|
G||----------------------|---------------------|---------------------|
D||--------------9-----9-|-------------9-----9-|-------------9-----9-|
A||o---5s7---5s7-7-0-0-7-|---5s7---5s7-7-0-0-7-|---5s7---5s7-7-0-0-7-|
E||--0h3s5-0h3s5---------|-0h3s5-0h3s5---------|-0h3s5-0h3s5---------|


     G5A5  G5A5G5A5             E5        G5 E5
                               Gtr I
                   PM|            PM|   PM
   S S S S S S S S S S S S      E S S E S  E S E
e|--------------------------||-------------------|
B|-------------------------o||-------------------|
G|--------------------------||-------------------|
D|--------------------------||--9-----9---12-9-9-|
A|---5s7---5s7-5s7---------o||--7-7-7-7-7-10-7-7-|
E|-0h3s5-0h3s5-3s5-3-0-3-2--||-------------------|


   D5E5          F5 E5      D5  D5
       PM----|        PM|         PM|       PM
   S S S S S S T  T S S S S S   E S S E S E S E
e|----------------------------|------------------|
B|----------------------------|------------------|
G|----------------------------|------------------|
D|-7s9---------9s10s9-----9s7-|-7-----7---7---7S=|
A|-5s7-7-7-7-7-7s=8s7-7-7-7s5-|-5-5-5-5-5-5-5-5S=|
E|----------------------------|------------------|


   G5             A5       EFE5
       PM
    E  S  S  E  S  S  S  S     S S
e|---------------------------------|
B|---------------------------------|
G|---------------------------------|
D|-12----12-12-12s14-14-14----10s9-|
A|-10-10-10-10-10s12-12-12-----8s7-|
E|---------------------------------|
 |
 | Gtr II
 |  H                 E        S S
e|---------------------------------|
B|---------------------------------|
G|---------------------------------|
D|----------------------------10s9-|
A|-----------------------------8s7-|
E|---------------------------------|


   E5        G5       D5E5          F5 E5      D5
     PM|   PM             PM----|        PM|
   E S S E S  E S E   S S S S S S T  T S S S S S
e|------------------|-----------------------------|
B|------------------|-----------------------------|
G|------------------|-----------------------------|
D|-9-----9---12-9-9-|-7s9---------9s10s9-----9s7--|
A|-7-7-7-7-7-10-7-7-|-5s7-7-7-7-7-7s=8s7-7-7-7s5--|
E|------------------|-----------------------------|
 |
 |   PM|   PM             PM----|        PM|
 | E S S E S  E S E   S S S S S S T  T S S S S S
e|------------------|-----------------------------|
B|------------------|-----------------------------|
G|------------------|-----------------------------|
D|-9-----9---12-9-9-|-7s9---------9s10s9-----9s7--|
A|-7-7-7-7-7-10-7-7-|-5s7-7-7-7-7-7s=8s7-7-7-7s5--|
E|------------------|-----------------------------|


   D5                  A           C
     PM|       PM
   E S S E S E S E   S E S +S  S S S +S  E.
e|-----------------|------------------------|
B|-----------------|------------------------|
G|-----------------|-----6-(6)-----------9--|
D|-7-----7---7---7-|-----------7------------|
A|-5-5-5-5-5-5-5-5-|------------------------|
E|-----------------|-3s5---------5s8-(8)----|
 |
 |   PM|       PM
 | E S S E S E S E   S E S +S  S S S +S  E.
e|-----------------|------------------------|
B|-----------------|------------------------|
G|-----------------|-----6-(6)-----------9--|
D|-7-----7---7---7-|-----------7------------|
A|-5-5-5-5-5-5-5-5-|------------------------|
E|-----------------|-3s5---------5s8-(8)----|


 [Outro]
     E5        D5    D5  E5     D5    D5  E5     D5
     Gtrs I, II
     E. E. E S  E.    E. E. E S  E.    E. E. E S  E.
e||----------------|----------------|----------------|
B||o---------------|----------------|----------------|
G||----------------|----------------|----------------|
D||----------------|----------------|----------------|
A||o-2--2--2---12--|-12\-2--2---12--|-12\-2--2---12--|
E||--0--0--0-0-10--|-10\-0--0-0-10--|-10\-0--0-0-10--|


  1.                           2.
  D5  E5                       D5  E5
                                        PM----|
   E. E. E  S   S   S   S       E. E. E S S S S

e|----------<5>-<5>-<5>-<5>--||-------------------|
B|----------<5>-<5>-<5>-<5>-o||-------------------|
G|----------<5>-<5>-<5>-<5>--||-------------------|
D|---------------------------||-------------------|
A|-12\-2--2-----------------o||-12\-2--2-7-7-7-7--|
E|-10\-0--0------------------||-10\-0--0----------|


   A5              C5            G5
                                 Gtr I
   W                H          S  E.
e|---------------|-------------------|
B|---------------|-------------------|
G|---------------|---------------14--|
D|---------------|-------------------|
A|---------------|---------------12--|
E|---------------|-------------------|
 |
 | Gtrs I, II                    Gtr I
 | E. E. E. E.      E.  E.  E.    E.
e|---------------|-------------------|
B|---------------|-------------------|
G|---------------|-------------------|
D|---------------|-------------------|
A|-7--7--7--7----|-10--10--10-----5--|
E|-5--5--5--5----|--8---8---8-----3--|


   E5              D5    D5  E5
    S  E  E.  E.    E.    E.  E.    Q   +E
e|---------------------|---------------------|
B|---------------------|---------------------|
G|-14s16-16--16----19--|-19--16----21--(21)\-|
D|---------------------|---------------------|
A|-12s14-14--14----17--|-17--14----19--(19)\-|
E|---------------------|---------------------|
 |
 |I
 |  E.    E.  E  S  E.    E.  E  S  Q    E
e|---------------------|---------------------|
B|---------------------|---------------------|
G|---------------------|---------------------|
D|---------------------|---------------------|
A|--2-----2---2----12--|-12\--2-----2----2---|
E|--0-----0---0--0-10--|-10\--0--0--0----0---|


   A5            C5          G5   E5
   Gtrs I, II
   E. E. E. E.    E.  E.  E. E.   E. Q  Q  S   W
e|-------------|----------------|------------|------*|
B|-------------|----------------|------------|------*|
G|-------------|----------------|------------|------*|
D|-------------|----------------|------------|------*|
A|-7--7--7--7--|-10--10--10--5--|-2----------|------*|
E|-5--5--5--5--|--8---8---8--3--|-0----------|------*|



************************************

| (n)  Ghost note
| h    Hammer-on
| p    Pull-off
| >    Accented note
| \    Slide down
| PM   Palm mute
| /    Slide up
| ~    Vibrato
| *    the end

************************************
Suggest correction
comments
print report bad tab
guest
You may want to rate the tab now too:
select rating
Wanna post a correction for this tab? Suggest correction