Oops, an error
Loading. Please wait.

Weak And Powerless Tab

version 1
version 1

Whole song

Interactive

52,807 views 30 this week
11 commentsread comments
1 2 3 4 5
x 8
add to favorites
×
Save as Personal and add changes to this tab that will be seen only by you. Learn more ›
×
You can save this tab as Personal to edit and correct it or add notes. All changes will be seen only by you. Learn more »
save as personal
new!
launch autoscroll
font size
0
reset
how to read this tab
guitar tuner
backing track
0:00
0:00
Autoscroll
slow
fast
+/-
esc
set tempo
stop
Author
Tuning:  c# G# E B F# C# 

[Intro]
(Guitar 1)
(0:00 - 0:18)
c#|-----------------------------------------------------------------------------|
G#|-----------------------------------------------------------------------------|
E |---4-----------------------------------------4-------------------------------|
B |-2---2-2-2-2-2-2h4p2-2-2-2p0-0h2-2-2-2h4p2-2---2-2-2-2-2-0h2-2-0h2-2-2-2-2-2-|
F#|-0---0-0-0-0-0-0-----0-0-0---0---0-0-0---------------------------------------|
C#|-----------------------------------------------------------------------------|

c#|-------------------------------------------------------------------------|
G#|-------------------------------------------------------------------------|
E |---4-------------------------------------------4-------------------------|
B |-2---2-2-2-0h2-2-0h2-2-2-2-2-2-2h4p2-2-2-0h2-2---2-2-0h2-2-0h2-2-2-2-0/5-|
F#|-0---0-0-0-0-----0-------------------------------------------------------|
C#|-------------------------------------------------------------------------|

(Guitar 2)
(0:15 - 0:18)
c#|-10-7-7---10-7-|
G#|---------------|
E |---------------|
B |---------------|
F#|---------------|
C#|---------------|

[Verse]
(Guitar 1)
(0:18 - 0:35)
c#|-----------------------------------------------------------------------------|
G#|-----5-----------------------------------------------------------------------|
E |-------------------------------------------4---------------------------------|
B |-2-2---2-2-2-2h4p2-2-2-2p0-0h2-2-2-2h4p2-2---2-2-0h2-2-2-0h2-2-2-2-2p0-------|
F#|-----------------------------------------------------------------------0h2---|
C#|---------------------------------------------------------------------------3-|

c#|-----------------------------------------------------------------------|
G#|-----------------------------------------5-----------------------------|
E |-----------------------------------------------------------------------|
B |-2-5-2-0h2-2-0h2-2-2-2-2-2h4p2-2-2-0h2-2---2-2-0h2-2-0h2-2-2-0h2-------|
F#|-----------------------------------------------------------------0h2---|
C#|---------------------------------------------------------------------3-|

(Guitar 2)
(0:18 - 0:35)
c#|-12-12-12-12-12-12-12-etc.-|
G#|---------------------------|
E |---------------------------|
B |---------------------------|
F#|---------------------------|
C#|---------------------------|

[Chorus]
(Guitar 1)
(0:35 - 0:54)
c#|-------------------------------------------------------|
G#|*------------------------------------------------------|
E |-------------------------------------------------------|
B |--------12-14-12---------------------------------------|
F#|*-12-14----------14-12-12-10---------12-10----------10-|
C#|-----------------------------12-10---------12-10-12----|
                   
c#|------------------------------------------------------------|----------------|
G#|-----------------------------------------------------------*|----------------|
E |------------------------------------------------------------|----------------|
B |-------12-14-12---------------------------------------------|----------------|
F#|-12-14----------14-12-12-10--------12-10-------10/14-12-10-*|-10/12-10-12----|
C#|----------------------------12-10--------12-10--------------|----------------|

(Guitar 2)
(0:35 - 0:54)
c#|-----------------------------------------------------------------------------|
G#|-----------------------------------------------------------------------------|
E |-I think there are some chords and whatnot here, but I can't figure it out.--|
B |-----------------------------------------------------------------------------|
F#|-----------------------------------------------------------------------------|
C#|-----------------------------------------------------------------------------|

[Verse]
(Guitar 1)
(0:54 - 1:11)
c#|-----------------------------------------------------------------------------|
G#|-----5-------------------------------------5---------------------------------|
E |-----------------------------------------------------------------------------|
B |-2-2---2-2-2-2h4p2-2-2-2p0-0h2-2-2-2h4p2-2---2-2-2h4p2-2-2-2-2-2p0-0h2-------|
F#|-----------------------------------------------------------------------0h2---|
C#|---------------------------------------------------------------------------3-|

c#|-----------------------------------------------------------------------------|
G#|-----------------------------------------------------------------------------|
E |-----------------------------------------------------------------------------|
B |-2-x-2-0h2-2-0h2-2-2-2-2-2h4p2-2-2-0h2-2/5-2-2-0h2-2-0h2-2-2-0h2-------------|
F#|-----------------------------------------------------------------0h2---------|
C#|---------------------------------------------------------------------3-------|

(Guitar 2)
(1:05 - 1:11)
c#|-12-12-12-12-12-12-12-etc.-|
G#|---------------------------|
E |---------------------------|
B |---------------------------|
F#|---------------------------|
C#|---------------------------|

[Chorus]
(Guitar 1)
(1:11 - 1:32)
c#|-------------------------------------------------------|
G#|*------------------------------------------------------|
E |-------------------------------------------------------|
B |--------12-14-12---------------------------------------|
F#|*-12-14----------14-12-12-10---------12-10----------10-|
C#|-----------------------------12-10---------12-10-12----|
                   
c#|------------------------------------------------------------|----------------|
G#|-----------------------------------------------------------*|----------------|
E |------------------------------------------------------------|----------------|
B |-------12-14-12---------------------------------------------|----------------|
F#|-12-14----------14-12-12-10--------12-10-------10/14-12-10-*|-10/12-10-12----|
C#|----------------------------12-10--------12-10--------------|----------------|

(Guitar 2)
(1:11 - 1:32)
c#|-----------------------------------------------------------------------------|
G#|-----------------------------------------------------------------------------|
E |-I think there are some chords and whatnot here, but I can't figure it out.--|
B |-----------------------------------------------------------------------------|
F#|-----------------------------------------------------------------------------|
C#|-----------------------------------------------------------------------------|

[Interlude]
(Guitar 1)
(1:32 - 1:57)
c#|-------0----0-0-0-0-3-3-3-3-0-0-0-0-|
G#|------0-----0-0-0-0-0-0-0-0-0-0-0-0-|
E |-----0------0-0-0-0-0-0-0-0-0-0-0-0-|
B |------------2-2-2-2-2-2-2-2-2-2-2-2-|
F#|---2--------3-3-3-3-3-3-3-3-3-3-3-3-|
C#|-0----------------------------------|
  
(Guitar 2)
(1:53 - 1:57)
c#|-7-7-7-10-10-7-7-10-7-7-|
G#|------------------------|
E |------------------------|
B |------------------------|
F#|------------------------|
C#|------------------------|

(Guitar 1 Whispered Vocal Part)
(1:57 - 2:14)
This is probably wrong, but sounds ok.
c#|-------------12----10-|
G#|-12-------12----10----|
E |----14-14-------------| (8x)
B |----------------------|
F#|----------------------|
C#|----------------------|

[Chorus]
(Guitar 1)
(2:14 - 2:33)
c#|-------------------------------------------------------|
G#|*------------------------------------------------------|
E |-------------------------------------------------------|
B |--------12-14-12---------------------------------------|
F#|*-12-14----------14-12-12-10---------12-10----------10-|
C#|-----------------------------12-10---------12-10-12----|
                   
c#|------------------------------------------------------------|----------------|
G#|-----------------------------------------------------------*|----------------|
E |------------------------------------------------------------|----------------|
B |-------12-14-12---------------------------------------------|----------------|
F#|-12-14----------14-12-12-10--------12-10-------10/14-12-10-*|-10/12-10-12----|
C#|----------------------------12-10--------12-10--------------|----------------|

(Guitar 2)
(2:14 - 2:33)
c#|-----------------------------------------------------------------------------|
G#|-----------------------------------------------------------------------------|
E |-I think there are some chords and whatnot here, but I can't figure it out.--|
B |-----------------------------------------------------------------------------|
F#|-----------------------------------------------------------------------------|
C#|-----------------------------------------------------------------------------|

[Chorus]
(Guitar 1)
(2:33 - 2:51)
c#|-------------------------------------------------------|
G#|*------------------------------------------------------|
E |-------------------------------------------------------|
B |--------12-14-12---------------------------------------|
F#|*-12-14----------14-12-12-10---------12-10----------10-|
C#|-----------------------------12-10---------12-10-12----|
                   
c#|------------------------------------------------------------|----------------|
G#|-----------------------------------------------------------*|----------------|
E |------------------------------------------------------------|----------------|
B |-------12-14-12---------------------------------------------|----------------|
F#|-12-14----------14-12-12-10--------12-10-------10/14-12-10-*|-10/12-10-12----|
C#|----------------------------12-10--------12-10--------------|----------------|

(Guitar 2)
(2:33 - 2:51)
c#|-----------------------------------------------------------------------------|
G#|-----------------------------------------------------------------------------|
E |-I think there are some chords and whatnot here, but I can't figure it out.--|
B |-----------------------------------------------------------------------------|
F#|-----------------------------------------------------------------------------|
C#|-----------------------------------------------------------------------------|

[Outro]
(Guitar 1)
(2:51 - 3:14)
(This too sounds ok, but probably isn't exactly what they play.)
c#|-----------------------------------------------------------------------------|
G#|-0-0-0--5-3------------------------------------------------------------------|
E |-4-4-4-----------------------------------------------------------------------|
B |-2-2-2-----------------------------------------------------------------------|
F#|-----------------------------------------------------------------------------|
C#|-----------------------------------------------------------------------------|

(Guitar 2)
(2:51 - 3:14)
c#|-----------------------------------------------------------------------------|
G#|-15-12----12-----------------------------------------------------------------|
E |-----------------------------------------------------------------------------|
B |-------------------------16h17-16-14(let ring)-------------------------------|
F#|-----------------------------------------------------------------------------|
C#|-----------------------------------------------------------------------------|


************************************

| h  Hammer-on
| p  Pull-off
| /  Slide up
| *  Natural harmonic
| x  Dead note

************************************
Suggest correction
comments
print report bad tab
11 comments total. Showing first comments.
0 reply
stratomatter87 30 Oct 27, 2003 07:00 PM

good job. i bet this was hard to tab. very awesome song...thanx alot.peace.

+1 reply
ithilien046 10 Nov 30, 2003 07:00 PM

i know for a fact that the intro is bass and not guitar

0 reply
guywithguitar 657 Dec 20, 2003 07:00 PM

it is bass but it sounds fine finderpicked on the guitar. by the way its also played in the outro

guest
You may want to rate the tab now too:
select rating
Wanna post a correction for this tab? Suggest correction