Oops, an error
Loading. Please wait.

Jab Tak Hai Jaan Poetryteri Ankho Ki Namkeen Mastiya Tab

16,389 views 69 this week
no commentswrite comment
1 2 3 4 5
x 3
add to favorites
launch autoscroll
font size
0
reset
how to read this tab
guitar tuner
×
Best way to learn
"Jab Tak Hai Jaan Poetryteri Ankho Ki Namkeen Mastiya"
Autoscroll
slow
fast
+/-
esc
set tempo
stop
Author
Difficulty
e|----------------|----------------|----------------|--------5-------|
B|--5-----5-------|--3-----5-------|--5-----3-------|--5-------------|
G|-----2-----2----|-----2-----2----|-----2-----2----|-----2-----2----|
D|----------------|----------------|----------------|----------------|
A|----------------|----------------|----------------|----------------|
E|----------------|----------------|----------------|----------------|

e|----------------|----------------|----------------|----------------|
B|--5-----3-------|--5--------3----|--3--5-----5----|--------3--3----|
G|-----2-----2----|-----2--5-------|--------2-------|--2--5----------|
D|----------------|----------------|----------------|----------------|
A|----------------|----------------|----------------|----------------|
E|----------------|----------------|----------------|----------------|

e|----------------|----------------|--0--2--0--2----|--0--2-----2----|
B|--5-----5-------|----------------|----------------|----------------|
G|-----2-----2----|----------------|----------------|----------------|
D|----------------|----------------|--2--2--2--2----|--2-----2--2----|
A|----------------|----------------|--2--2--2--2----|--2-------------|
E|----------------|----------------|----------------|----------------|

                                      G
e|--3--2--3--2----|--3--5--0--5----|--0--3----------|----------------|
B|----------------|-----7--1--7----|--1-------------|----------------|
G|----------------|-----7--0--7----|--0-------------|----------------|
D|--2--2--2--2----|--2--7--2--7----|--2-------------|----------------|
A|----------------|--------3-------|--3--2----------|----------------|
E|----------------|----------------|-----3----------|----------------|

e|----------------|----------------|----------------|----------------|
B|----------------|----------------|----------------|----------------|
G|-----6----------|--7--------7----|--------6--4----|-----11-11-12---|
D|--4-----4--5----|-----5--7-------|--7-------------|--7-------------|
A|----------------|----------------|----------------|----------------|
E|----------------|----------------|----------------|----------------|

e|----------------|----------------|----------------|----------------|-------|
B|----------------|----------------|----------------|----------------|-------|
G|--11-9--9--11---|--9--7--7-------|-----------9----|--7--4--9--7----|--4----|
D|----------------|-----------9----|--7-----9--9----|--7--4--9--7----|--4----|
A|----------------|----------------|-----9--9--7----|--5--2--7--5----|--2----|
E|----------------|----------------|--------7-------|----------------|-------|
Suggest correction
Give kudos to tab author, rate the tab!
1 2 3 4 5
comments
print report bad tab
guest
You may want to rate the tab now too:
select rating
Wanna post a correction for this tab? Suggest correction