Oops, an error
Loading. Please wait.

Jo Bhi Main chords

version 1
version 1

Whole song

Interactive

154,545 views 435 this week
4 commentsread comments
1 2 3 4 5
x 11
add to favorites
×
Save as Personal and add changes to this tab that will be seen only by you. Learn more ›
×
You can save this tab as Personal to edit and correct it or add notes. All changes will be seen only by you. Learn more »
launch autoscroll
font size
0
reset
transpose
0
reset
simplify chords
display chords
guitar tuner
edit
Autoscroll
slow
fast
+/-
esc
set tempo
stop
Author
Difficulty
Unregistered
Strumming
There is no strumming pattern for this song yet. and get +5 IQ
ref - abhijeet4evr(http://www.youtube.com/watch?v=QokWlfzQOGI)

[Intro]
(15-16 times)

e|--------0--------------------------------------|
B|-------------0---------------------------------|
G|----------0----------0h2p0---------------------|
D|-----2----------2-----------2------------------|
A|-----------------------------------------------|
E|--0--------------------------------------------|

(After arpeggios)

Em

G(bar)       Bm(bar) 
Jo bhi main, kehna chahoon
Em         Em   D     Em    D     Em
Barbaad karein, alfaz mere, alfaz mere   

Em              D Dsus4 Dsus2
Oo yeah yeah oo yeah yeah..


[Verse]

G(bar)                           C
Kabhi mujhe lagey ke jaise, saara hi yeh jahaan hai jaage
Am                           D
Jo hai aur nahin bhi hai, yeh fiza ghata hawa bahaarein
G           Bm(bar)
Tujhe kare ishaare ya
C           D
Kaise kahun, kahani main inki


[Chorus]

G(bar)       Bm(bar) 
Jo bhi main, kehna chahoon
Em         Em   D     Em    D     Em
Barbaad karein, alfaz mere, alfaz mere 

Em
Oo yeah yeah oo ..



************************************

| h  Hammer-on
| p  Pull-off  

************************************
Suggest correction
Creating personal tab
Creating personal tab
You can edit any tab online and save it as your Personal.

You can edit, replace or remove any tab part or add personal notes – all changes will be seen only by you.

Personal tabs can be accessed anytime from any device, even offline.
Learn more »
comments
print report bad tab
4 comments total. Showing first comments.
+2 reply
Lone_strummer 10 Jun 22, 2012 10:17 PM

A small correction on the intro

instead of
e--------0--------------------------------------|
B-------------0---------------------------------|
G----------0----------0h2p0---------------------|
D-----2----------2-----------2------------------|
A-----------------------------------------------|
E--0--------------------------------------------|

it should be
e--------0--------------------------------------|
B-------------3---------------------------------|
G----------0----------0h2p0---------------------|
D-----2----------2-----------2------------------|
A-----------------------------------------------|
E--0--------------------------------------------|

+3 reply
addyally 16 Jun 01, 2013 09:49 PM

Try this sounds better!!!!
e------0-------------------------------------|
B------------3-------------------------------|
G---------0---------2------------------------|
D---------------4h5---4-0--------------------|
A--------------------------------------------|
E--0-----------------------------------------|

0 reply
addyally 16 Jun 01, 2013 09:52 PM

Try this sounds better!!!!
e------0-------------------------------------|
B------------3-------------------------------|
G---------0---------2------------------------|
D---------------4h5---4-0--------------------|
A--------------------------------------------|
E--0-----------------------------------------|

guest
Wanna post a correction for this tab? Suggest correction