Oops, an error
Loading. Please wait.

Taal Se Taal Mila tab

886 views 15 this week
no commentswrite comment
1 2 3 4 5
2 more votes to show rating
add to favorites
×
Save as Personal and add changes to this tab that will be seen only by you. Learn more ›
×
You can save this tab as Personal to edit and correct it or add notes. All changes will be seen only by you. Learn more »
launch autoscroll
font size
0
reset
how to read this tab
guitar tuner
edit
Autoscroll
slow
fast
+/-
esc
set tempo
stop
Author
Difficulty
E|-------------------------------|
B|--8--8--8--11--11--10--8/10\8--|
G|-------------------------------|
D|-------------------------------|
A|-------------------------------|
E|-------------------------------|
  Dil ye bechain we

E|--10--10--10--10h11--11--10/8-------10--8----------------|
B|--------------------------------------------11--8/10\8---|
G|---------------------------------------------------------|
D|---------------------------------------------------------|
A|---------------------------------------------------------|
E|---------------------------------------------------------|
  Aaja savaria                         aa aa aa aa

E|---------------------------------------------------------------------------------|
B|--8/11--8---------------------8--8h9--11p8-------8/11--8---------------------8---|
G|-------------10--8--10--10--------------------------------10--8--10--10----------|
D|---------------------------------------------------------------------------------|
A|---------------------------------------------------------------------------------|
E|---------------------------------------------------------------------------------|
  Taal se taal mila hooo

E|------------------------------------------------------------8\5--5\8--8--8\10----5\8--10--11--10--10--10--|
B|7h8--8--10--10--8--8/10\8-----7-7--8--10--10--8--8-----8-10-----------------------------------------------|
G|----------------------------------------------------------------------------------------------------------|
D|----------------------------------------------------------------------------------------------------------|
A|----------------------------------------------------------------------------------------------------------|
E|----------------------------------------------------------------------------------------------------------|
   Sawan ne aaj to mujhko bhigodia  hai meree laaj ne mujhko dubodiya

E|--8h10--6h8--5h6--3--|
B|---------------------|
G|---------------------|
D|---------------------|
A|---------------------|
E|---------------------|

E|------------------------------------------------------------8\5--5\8--8--8\10----5\8--10--11--10--10--10--|
B|7h8--8--10--10--8--8/10\8-----7-7--8--10--10--8--8-----8-10-----------------------------------------------|
G|----------------------------------------------------------------------------------------------------------|
D|----------------------------------------------------------------------------------------------------------|
A|----------------------------------------------------------------------------------------------------------|
E|----------------------------------------------------------------------------------------------------------|

E|-8-10-11-8/11-11-11----10-8-6-6/10-10-10----10-11-13-10/14-14-14-------13--11--10--10--10--10--|
B|-----------------------------------------------------------------------------------------------|
G|-----------------------------------------------------------------------------------------------|
D|-----------------------------------------------------------------------------------------------|
A|-----------------------------------------------------------------------------------------------|
E|-----------------------------------------------------------------------------------------------|
  Aisee lagee jhadee sochu mai yeh ghadee,  Kuchh maine kho diya, kya maine kho diya

E|-10-10-11-8/11-10-8-----8-8-10-6/10-6-6-----6-6-8/11-11-11-8/11-8-6-5----5-6-5---5--------|
B|-------------------------------------------------------------------------------8--8—7\----|
G|------------------------------------------------------------------------------------------|
D|------------------------------------------------------------------------------------------|
A|------------------------------------------------------------------------------------------|
E|------------------------------------------------------------------------------------------|
  Chup kyun he bol tun, sang mere dol tun, mere chaal se chaal mila

E|----------------------------------------------------------------------------|
B|--8/11--8---------------------8--8h9--11p8--8/11--8---------------------8---|
G|-------------10--8--10--10----------------------------10--8--10--10---------|
D|----------------------------------------------------------------------------|
A|----------------------------------------------------------------------------|
E|----------------------------------------------------------------------------|
Taal se taal mila


***********************************
| /   Slide up
| \   Slide down
| h   Hummer-on
| p   Pull-off
***********************************

            
            
Suggest correction
Creating personal tab
Creating personal tab
You can edit any tab online and save it as your Personal.

You can edit, replace or remove any tab part or add personal notes – all changes will be seen only by you.

Personal tabs can be accessed anytime from any device, even offline.
Learn more »
Give kudos to tab author, rate the tab!
1 2 3 4 5
comments
print report bad tab
guest
You may want to rate the tab now too:
select rating
Wanna post a correction for this tab? Suggest correction