Oops, an error
Loading. Please wait.
We have Chord Pro version of Baby Blue Eyes.
It's the closest thing you can get to the original song and it has interactive parts. Check out the tab »
×
70,670 views 12 this week
2 commentsread comments
1 2 3 4 5
x 11
add to favorites
launch autoscroll
font size
0
reset
how to read this tab
guitar tuner
Autoscroll
slow
fast
+/-
esc
set tempo
stop
Author
Difficulty
Capo
novice
4th fret
Tabbed by: Ben Sylor
Email: paintbllrspyder1@yahoo.com

Tuning: Standard
CAPO 4

The strumming is easy, so I'll only include the chords themselves for the verse


e|-----------------------------3--3--3-3-3-3-3-3-3-3--3------------------------|
B|-----------------------------3--3--3-3-3-3-3-3-3-3--3------------------------|
G|--2h4----2p0-----------------0--0--0-0-0-0-0-0-0-0--0------------------------|
D|-----------------------------0--0--0-0-0-0-0-0-0-0--0------------------------|
A|-----------------------------2--2--2-2-2-0-0-0-0-0--0------------------------|
E|-----------------------------3--3--3-3-3-3-3-3-3-3--3------------------------|

e|--3--3--3-3-3-3-3-3-3-3--3-----3--3--3-3-3---3--3--3--3-3---3--------------|
B|--3--3--3-3-3-3-3-3-3-3--3-----3--3--3-3-3---3--3--3--3-3---3--------------|
G|--0--0--0-0-0-0-0-0-0-0--0-----0--0--0-0-0---0--0--0--0-0---0--------------|
D|--1--1--1-1-1-1-1-1-1-1--1-----0--0--0-0-0---0--0--0--0-0---0h2------------|
A|--2--2--2-2-2-0-0-0-0-0--0-----2--2--2-2-2---0--0--0--0-0---3--------------|
E|--x--x--x-x-x-x-x-x-x-x--x-----0--0--0-0-0---x--x--x--x-x---x--------------|


  My eyes are no good blind without her, the way she moves I never doubt her
e|--------------3------------------------------------3-----------------------|
B|--------------3------------------------------------3-----------------------|
G|--------------0------------------------------------0-----------------------|
D|--------------0------------------------------------0-----------------------|
A|--------------2------------------------------------0-----------------------|
E|--------------3------------------------------------2-----------------------|

    when she talks she somehow creeps into my dreams.

e|----------3---------------------3-----------3--------3---------------------|
B|----------3---------------------3-----------3--------3---------------------|
G|----------0---------------------0-----------0--------0---------------------|
D|----------0---------------------0-----------2--------0---------------------|
A|----------2---------------------0-----------3--------3---------------------|
E|----------0---------------------x-----------x--------x---------------------|

She's a doll, at catch, a winner, I'm in love and no beginner could ever

e|-------3---------------------------------3---------------------------------|
B|-------3---------------------------------3---------------------------------|
G|-------0---------------------------------0---------------------------------|
D|-------0---------------------------------0---------------------------------|
A|-------2---------------------------------0---------------------------------|
E|-------3---------------------------------2---------------------------------|

grasp or understand just what she means.

e|--3-------------3-----------------3------------3---------------------------|
B|--3-------------3-----------------3------------3---------------------------|
G|--0-------------0-----------------0------------0---------------------------|
D|--0-------------0-----------------2------------0---------------------------|
A|--2-------------0-----------------3------------3---------------------------|
E|--0-------------x-----------------x------------x---------------------------|


The chorus is the same as the intro, execpt at the end of the second playthough add..


And I may feel like a fool, but I'm the only one dancin with you

e|----3---------------------------------2------------------------------------|
B|----3---------------------------------3------------------------------------|
G|----0---------------------------------0------------------------------------|
D|----2---------------------------------0------------------------------------|
A|----0---------------------------------0------------------------------------|
E|----x---------------------------------x------------------------------------|

I believe the rest of the song can be played using the same chords.


| /  slide up
| \  slide down
| h  hammer-on
| p  pull-off
| ~  vibrato
| +  harmonic
| x  Mute note
===============================================================================
Suggest correction
comments
print report bad tab
2 comments total.
+2 reply
pntbllrspdr 136 Dec 20, 2009 07:50 AM

WOW. I just noticed a big mistake I made. On the second line of my tab (and anytime the chords are used throught the song), it should be

e|--3--3--3-3-3-3-3-3-3-3--3-----3--3--3-3-3---3--3--3--3-3
B|--3--3--3-3-3-3-3-3-3-3--3-----3--3--3-3-3---3--3--3--3-3
G|--0--0--0-0-0-0-0-0-0-0--0-----0--0--0-0-0---2--2--2--2-2
D|--2--2--2-2-2-0-0-0-0-0--0-----2--2--2-2-2---0--0--0--0-0
A|--3--3--3-3-3-3-3-3-3-3--3-----2--2--2-2-2---x--x--x--x-x
E|--x--x--x-x-x-x-x-x-x-x--x-----0--0--0-0-0---x--x--x--x-x

0 reply
lzs15 10 Nov 07, 2011 09:31 AM

You should remake this so it makes more sense! I like it better than the other tabs.

guest
You may want to rate the tab now too:
select rating
Wanna post a correction for this tab? Suggest correction