Oops, an error
Loading. Please wait.

Ever Enough Tab

version 1
version 1

Whole song

Interactive

36,206 views 87 this week
no commentswrite comment
1 2 3 4 5
excellent!
x 17
add to favorites
launch autoscroll
font size
0
reset
how to read this tab
guitar tuner
Tab Pro tools
  • play this tab
  • loop segment
  • change instrument
  • show fretboard
  • metronome
×
Best way to learn
"Ever Enough"
Autoscroll
slow
fast
+/-
esc
set tempo
stop
Contributor
Difficulty
Tuning
novice
D# G# C# F# A# D#
-------------------------------------------------------------------------------
                             EVER ENOUGH - A Rocket To The Moon
-------------------------------------------------------------------------------
Tabbed by: kringdong
E-mail: kringdong@gmail.com

Tuning: Half-step down (Eb Ab Db Gb Bb eb)


Intro:

                   D                                 A
eb|---------------------------------|---------------------------------|
Bb|-----3---3-----3-----3-------3---|-----3---3-----3-----3-------3---|
Gb|---2---2---2-------2---2---2---2-|---2---2---2-------2---2---2---2-|
Db|-0-----------0---0---------------|---------------------------------|
Ab|---------------------------------|-0-----------0---0-------0-------|
Eb|-------------------------3-------|---------------------------------|

                   Bm                                G
eb|---------------------------------|---------------------------------|
Bb|-----3---3-----3-----3-------3---|-----3---3-----3-----3-------3---|
Gb|---2---2---2-------2---2---2---2-|---2---2---2-------2---2---2---2-|
Db|---------------------------------|---------------------------------|
Ab|-2-----------2---2---------------|---------------------------------|
Eb|-------------------------2-------|-3-----------3---3-------3-------|

(This applies to verse and chorus)


Verse 1:

D
No I'm never gonna leave you darling 
A
Oh I'm never gonna go regardless
Bm
Everything inside of me
G
Is living in your heartbeat
D
Even when all the lights are fading
A
Even then if your hope is shaking
Bm               G
I'm here holding on



Chorus:

D                 Bm
I will always be yours
             Em
Forever and more
D/F#         G            A
Through the push and the pull
D                      Bm
I still drown in your love
                 Em
Drink till I'm drunk
D/F#               G
And all that I've done 
       A
Is it ever enough?



Verse 2:
D
I'm hanging on the line here baby
A
I need more than ifs and maybes
Bm
Come down from the highest highs
G
Still searching for the reason why
D
Now I know what it's like
A
Reaching from the other side
Bm                  G
After all that I've done



Chorus:

D                 Bm
I will always be yours
             Em
Forever and more
D/F#         G            A
Through the push and the pull
D                      Bm
I still drown in your love
                 Em
Drink till I'm drunk
D/F#               G
And all that I've done 
       A
Is it ever enough?



Bridge:

     G             Bm         A
For all that it's worth is it worth it

          G             Bm          A
There's more than this heart your deserting
     G             Bm         A
For all that's it worth is it worth it
     G      Bm             A
How can we know without searching


(plucking)

D                      Bm
I will write you this song
                    Em - D/F#
To get back what's ours
       G         A
Would that be enough?



Chorus:

D                 Bm
I will always be yours
             Em
Forever and more
D/F#         G            A
Through the push and the pull
D                      Bm
I still drown in your love
                 Em
Drink till I'm drunk
D/F#               G
And all that I've done 
       A
Is it ever enough?



Outro:

     D                         Em
For all that's it worth is it worth it
           D/F#
Is it ever enough?)
     G      D/F#           Em
How can we know without searching
       A
Is it ever enough?)
comments
print report bad tab
I want to post or [tab]
guest
You may want to rate the tab now too:
select rating
Please do not post tabs as comments. Select "correction" instead!