Oops, an error
Loading. Please wait.

Ever Enough chords

version 3
version 3

Whole song

  • Has Standard Tuning, and Capo on the first Fret. A... Show more

Interactive

490 views 15 this week
no commentswrite comment
1 2 3 4 5
3 more votes to show rating
add to favorites
×
Save as Personal and add changes to this tab that will be seen only by you. Learn more ›
×
You can save this tab as Personal to edit and correct it or add notes. All changes will be seen only by you. Learn more »
launch autoscroll
font size
0
reset
transpose
0
reset
simplify chords
display chords
guitar tuner
edit
Autoscroll
slow
fast
+/-
esc
set tempo
stop
About this tab version
Has Standard Tuning, and Capo on the first Fret. Also shows tab for fingerpicking. Was this info helpful? Yes No
Strumming
There is no strumming pattern for this song yet. and get +5 IQ
[Intro]

e|-------------------------------------------------------------------------------|
B|------1---1-----------1-------1-------1---1-----------1--------1---------------|
G|----0---0---0---0---0---0---0---0---0---0---0---0---0---0---0----0-------------|
D|-------------------------------------------------------------------------------|
A|--3-----------3---3------------------------------------------------------------|
E|--------------------------1-------3-----------3---3-------3--------------------|

e|-------------------------------------------------------------------------------|
B|------1---1-----------1-------1-------1---1-----------1--------1---------------|
G|----0---0---0---0---0---0---0---0---0---0---0---0---0---0---0----0-------------|
D|-------------------------------------------------------------------------------|
A|--0-----------0---0------------------------------------------------------------|
E|--------------------------0-------1-----------1---1-------1--------------------|


[Verse]

e|-------------------------------------------------------------------------------|
B|------1---1-----------1-------1-------1---1-----------1--------1---------------|
G|----0---0---0---0---0---0---0---0---0---0---0---0---0---0---0----0-------------|
D|-------------------------------------------------------------------------------|
A|--3-----------3---3------------------------------------------------------------|
E|--------------------------1-------3-----------3---3-------3--------------------|

e|-------------------------------------------------------------------------------|
B|------1---1-----------1-------1-------1---1-----------1--------1---------------|
G|----0---0---0---0---0---0---0---0---0---0---0---0---0---0---0----0-------------|
D|-------------------------------------------------------------------------------|
A|--0-----------0---0------------------------------------------------------------|
E|--------------------------0-------1-----------1---1-------1--------------------|

e|-------------------------------------------------------------------------------|
B|------1---1-----------1-------1-------1---1-----------1--------1---------------|
G|----0---0---0---0---0---0---0---0---0---0---0---0---0---0---0----0-------------|
D|-------------------------------------------------------------------------------|
A|--3-----------3---3------------------------------------------------------------|
E|--------------------------1-------3-----------3---3-------3--------------------|

e|-------------------------------------------------------------------------------|
B|------1---1-----------1-------1-------1---1-----------1--------1---------------|
G|----0---0---0---0---0---0---0---0---0---0---0---0---0---0---0----0-------------|
D|-------------------------------------------------------------------------------|
A|--0-----------0---0------------------------------------------------------------|
E|--------------------------0-------1-----------1---1-------1--------------------|


[Chorus]
(Either play the verse again, or play the chords )
 

C                   Am7             Dm7     C
I will always be yours forever and more  
F                         G
Through the push and the pull
C                      Am7 
I still drown in your love
                    Dm7
And drink 'til I’m drunk
C                  F
And all that I’ve done,
G
Is it ever enough

C C C C


[Verse]

C                              G
I’m hanging on a line here baby
                                 Am7
I need more than if's and maybe's

We’ll come down from the highest heights
Fmaj9                              C
Still searching for the reason why
                             G
And now I know what it’s like,
                            Am7
Reaching from the other side
                        Fmaj9
After all that I’ve done


[Chorus]

C                   Am7             Dm7     C
I will always be yours forever and more  
F                         G
Through the push and the pull
C                      Am7 
I still drown in your love
                    Dm7
And drink 'til I’m drunk
C                  F
And all that I’ve done,
G
Is it ever enough


[Bridge]

F                Am7             G  
For all that it’s worth, is it worth it?
      F              Am7          G
Cause more than it’s hard to desert it
F                Am7             G
For all that it’s worth, is it worth it?
F          Am7           G
How do we know without searching?


e|-------------------------------------------------------------------------------|
B|------1---1-----------1-------1-------1---1-----------1--------1---------------|
G|----0---0---0---0---0---0---0---0---0---0---0---0---0---0---0----0-------------|
D|-------------------------------------------------------------------------------|
A|--3-----------3---3-------3-------0-----------0---0-------0--------------------|
E|-------------------------------------------------------------------------------|

I will write you this song to get back what’s 
Dm7    C
ours
F                  G
Would that be enough?


[Chorus]

N.C.                   Am7             Dm7     C
I will always be yours forever and more  
F                         G
Through the push and the pull
C                      Am7 
I still drown in your love
                    Dm7
And drink 'til I’m drunk
C                  F
And all that I’ve done,
G                 
Is it ever enough  


F                Am7             G  
For all that it’s worth, is it worth it?
      F              Am7          G
Cause more than it’s hard to desert it
F                Am7             G
For all that it’s worth, is it worth it?
F          Am7           G          C
How do we know without searching?

            
            
Suggest correction
Creating personal tab
Creating personal tab
You can edit any tab online and save it as your Personal.

You can edit, replace or remove any tab part or add personal notes – all changes will be seen only by you.

Personal tabs can be accessed anytime from any device, even offline.
Learn more »
Give kudos to tab author, rate the tab!
1 2 3 4 5
comments
print report bad tab
guest
You may want to rate the tab now too:
select rating
Wanna post a correction for this tab? Suggest correction