Oops, an error
Loading. Please wait.

I Do Chords

version 1
version 1

Whole song

Interactive

1,838 views 66 this week
no commentswrite comment
1 2 3 4 5
1 last vote to show rating
add to favorites
launch autoscroll
font size
0
reset
transpose
0
reset
display chords
guitar tuner
×
Best way to learn
"I Do"
Autoscroll
slow
fast
+/-
esc
set tempo
stop
Difficulty
intermediate
Have Fun playing!
I'm pretty sure that this is correct..

Intro:(piano part)
e|-------------------------------------|
b|---5----5----5----5----5----5----7---|
g|-7----7----7----7----7----7----7-----|
d|--7----7----7----7----7----7----7----|
a|-------------------------------------|
E|-------------------------------------|
     D      G    Bm   A
e|-----------------2-------------|
b|-----7--3-5-----3-3-5----------|
g|----7--------------------------|2x
d|-------------------------------|
a|--5-----------2-----0----------|
E|----------3--------------------|



Verse 1:

D                    G              Bm         A
You get lost on your way back home, just about anywhere.
D                       G      Bm            A
You sing off key to the radio, like nobody’s there.
D                    G                  Bm            A
And I love that your Sunday’s best is a holey pair of jeans
G                   Bm              A
And I don’t stand a chance when you smile.

Chorus:
G                    D
Yeah the longer that we’re together,
    A             Bm
The good keeps on getting better,
  G                  D            A                  Bm
I never thought that I would ever find someone like you.
G             D
Every day you show me I can,
A           Bm                 G        Bm             A   D
Just when I think that I can’t love you anymore than I do, I do.

Verse 2: Same chords as verse 1
You change your hair colour every week, cause you’re never quite sure of it.
And I know when you’re mad at me, cause you tell me what I did
And all I think is beautiful, when I think of you,
And I still can’t believe that you’re mine.

chorus: 
Yeah the longer that we’re together,
The good keeps on getting better,
I never thought that I would ever find someone like you.
Every day you show me I can,
Just when I think that I can’t love you anymore than I do, I do.

Adlib:  Bm-A-D-G
e|------------------------------------------14-15-14~-15-14-14-------------------|
b|--7/12~--15-11/12-12\10-------------------------------------17-15-15-17--------|
g|------------------------11h12p11--9-------------------------------------16-----|
d|--------------------------------12-9\7-----------------------------------------|
a|-------------------------------------------------------------------------------|
E|-------------------------------------------------------------------------------|

D            G          Bm                A
All I see is beautiful, when I look at you.

Chorus:
Yeah the longer that we’re together,
The good keeps on getting better,
I never thought that I would ever find someone like you.
Every day you show me I can,
Just when I think that I can’t love you anymore than I do
I can’t love you anymore than I do, I do
I do.
Suggest correction
Give kudos to tab author, rate the tab!
1 2 3 4 5
comments
print report bad tab
guest
You may want to rate the tab now too:
select rating
Wanna post a correction for this tab? Suggest correction