Oops, an error
Loading. Please wait.

Like We Used To Tab

version 7
version 7

Whole song

Interactive

25 views 1 this week
no commentswrite comment
1 2 3 4 5
3 more votes to show rating
add to favorites
launch autoscroll
font size
0
reset
how to read this tab
guitar tuner
Autoscroll
slow
fast
+/-
esc
set tempo
stop
Help us to improve Ultimate-Guitar.com Take our survey!
×
Author
Difficulty
Capo
intermediate
1st fret
Fingerstyle. 

if you however want the REAL version, here it is, he doesn't teach it well but after analyzing the song
this guy has it perfect.... https://www.youtube.com/watch?v=MWyDz67z57o&list=RDMWyDz67z57o

Note: 3rd fret B and 2nd fret G can be held the entire intro

e|--0h2p0---| you play the pull-off in time with the other note
B|----------| to help them harmonize better together
G|------2---| it can look confusing tabbing technique.....
D|----------|
A|----------|
E|----------|


[Intro]

     *                         *            *
e|---0h2-------2p0h2-0------0------------0--0h2p0---0--|
B|---3------3-------------3------------3----3-----3----|
G|---2----2-------------2------2h4----------2---2------|
D|---0---------------0---------0-----0------0----------|
A|---0----------------------------------------------0--|
E|-------------------2---------3-----------------------|
                     t


e|---------0-------------3p2-0---------0---0h2p0---0-|
B|--3---------3----------3---3-3---------3-------3---|
G|-------2----2----2-----------2----2----------2-----|
D|--0--0---------0----------------0------0-----------|
A|-------------------------------------------------0-|
E|------------2----------------3---------------------|

************************************

| h  Hammer-on
| p  Pull-off
| *  Slow strum
| t  Use thumb to hold fret

************************************
Suggest correction
Give kudos to tab author, rate the tab!
1 2 3 4 5
comments
print report bad tab
guest
You may want to rate the tab now too:
select rating
Wanna post a correction for this tab? Suggest correction