Oops, an error
Loading. Please wait.

Oh Dakota tab

version 2
version 2

Whole song

1,019 views 1 this week
no commentswrite comment
1 2 3 4 5
3 more votes to show rating
add to favorites
×
Save as Personal and add changes to this tab that will be seen only by you. Learn more ›
×
You can save this tab as Personal to edit and correct it or add notes. All changes will be seen only by you. Learn more »
launch autoscroll
font size
0
reset
how to read this tab
guitar tuner
edit
Autoscroll
slow
fast
+/-
esc
set tempo
stop
This Tab is originally submitted by dudeitsjio I just wanted to add the intro of the lead.

Capo on the 1st fret.

Intro Lead (x2)WITH THE CAPO! :D
e|-----2-----2-------|
B|-2-4--4-2-4-4-2-2--|
G|-----------------4-|
D|-------------------|
A|-------------------|
E|-------------------|

Intro (x2):
e|-0---0---3---0-|
B|-1---1---3---1-|
G|-2---0---0---2-|
D|-3---2---0---2-|
A|-3---3---2---0-|
E|-x---x---3---x-|

Verse (x2):
e|-0---0-|
B|-1---1-|
G|-0---0-|
D|-2---2-|
A|-3---0-|
E|-x---x-|

".. Up her eyes..":
e|-0---3---0-|
B|-1---3---1-|
G|-2---0---2-|
D|-3---0---2-|
A|-3---2---0-|
E|-x---3---x-|

".. She sings to me at night..":
e|-0---3---3-|
B|-1---3---3-|
G|-2---0---0-|
D|-3---0---3-|
A|-3---2---2-|
E|-x---3---x-|

Ba da ba ba ba da ba ba ba ba da (x2):
e|-0---0-|
B|-1---1-|
G|-0---0-|
D|-2---2-|
A|-3---0-|
E|-x---x-|

"..But I, can make up my own words":
e|-0-|
B|-1-|
G|-2-|
D|-3-|
A|-3-|
E|-x-|

Just down strum twelve times until the chorus which is -

Chorus (x2):
e|-0---0---3---0-|
B|-1---1---3---1-|
G|-2---0---0---2-|
D|-3---2---0---2-|
A|-3---3---2---0-|
E|-x---x---3---x-|

Then after you play the chorus part two times play (This is still part of the chorus) -

".. It's the way you do the things you do..":
e|-0---0---3---3---0---3---0-|
B|-1---1---3---3---1---3---1-|
G|-2---0---0---0---2---0---2-|
D|-3---2---0---0---2---0---3-|
A|-3---3---2---0---0---3---3-|
E|-x---x---3---4---x---2---x-|


Verse (x2):
e|-0---0-|
B|-1---1-|
G|-0---0-|
D|-2---2-|
A|-3---0-|
E|-x---x-|

".. This time, I'll try not to show, woah oh oh, That I, am not letting go.."
e|-0----------------0----------------0----0---0-------------0-|
B|-1----------------3----------------3----2---1-------------3-|
G|-2----------------4----------------4----3---2-------------4-|
D|-3----------------5----------------5----4---3-------------5-|
A|-3----------------5----------------5----4---3-------------5-|
E|-x----------------x----------------x----x---x-------------x-|

Chorus (x2)

Bridge (x2):
e|-0---0---0---0-|
B|-1---1---1---0-|
G|-2---2---0---0-|
D|-2---3---2---0-|
A|-0---3---3---2-|
E|-x---x---x---3-|

Ba da ba ba ba da ba ba ba ba da (x2)

Chorus (x4)

".. I'm in love with you, are you in love with me too?":
e|-0---3---0-|
B|-1---3---1-|
G|-2---0---2-|
D|-2---0---3-|
A|-0---2---3-|
E|-x---3---x-|
Suggest correction
Creating personal tab
Creating personal tab
You can edit any tab online and save it as your Personal.

You can edit, replace or remove any tab part or add personal notes – all changes will be seen only by you.

Personal tabs can be accessed anytime from any device, even offline.
Learn more »
Give kudos to tab author, rate the tab!
1 2 3 4 5
comments
print report bad tab
guest
Wanna post a correction for this tab? Suggest correction