Oops, an error
Loading. Please wait.

All The Questions You Wanted Answered Tab

51 views 1 this week
1 commentread comment
1 2 3 4 5
please rate
add to favorites
launch autoscroll
font size
0
reset
how to read this tab
guitar tuner
Tab Pro tools
  • play this tab
  • loop segment
  • change instrument
  • show fretboard
  • metronome
×
Best way to learn
"All The Questions You Wanted Answered"
Autoscroll
slow
fast
+/-
esc
set tempo
stop
Contributor
Difficulty
Tuning
intermediate
D A D G B E
A SILENT FICTION
ALL THE QUESTIONS YOU WANTED ANSWERED
DROP D



INTRO
GTR1 
(cleanish, with a low tone and like a phaser/delay effect.)
E|----------------------------------|------------------------------|------------------------------|
B|----------------------------------|------------------------------|------------------------------|
G|----------------------------------|------------------------------|------------------------------|
D|----------------------------------|------------------------------|------------------------------|
A|-----8-----7-----8---10---8--7-7~-|-8-----7----(1)---10--8--7-7~-|--8-----7-----8---10---8--7-7~|
D|-0-0---0-0---0-0---0----0-8-------|---0-0---0-0---0----0-8-------|----0-0---0-0---0----0-8------|
||
E|----------------------------------|
B|----------------------------------|
G|--------------TURN TONE UP====----|
D|-----------------------------\/---|
A|--1-1-1-0--0-0~0-0--0-0-0-0~~~~~~-|
D|----------------------------------|




MAIN INTRO RIFF 
GTR1 (distortion, no effects)
E|----------------------------------|------------------|
B|----------------------------------|------------------|
G|---------------X3-----------------|--------X1--------|
D|----------------------------------|------------------|
A|-----8---7---8---10p8p7h8h10p8p7--|1111111133330000--|
D|-0-0---0---0---0----------------7-|------------------|
||
GTR2 (distortion)
E|---------------------------------||------------------|
B|---------------------------------||------------------|\
G|---------------------------------||------------------| \
D|-0-0-0-0-0-0-0-0-0-0-0-0-0-0-0-0-||8888888810107777--|  X2
A|-0-0-0-0-0-0-0-0-0-0-0-0-0-0-0-0-||8888888810107777--| /
D|-0-0-0-0-0-0-0-0-0-0-0-0-0-0-0-0-||8888888810107777--|/
                                             TENS
then..
GTR1 
E|---------------------------------||---------------------------------|
B|---------------------------------||---------------------------------|
G|-1414141412121212101010109-9-9-9-||-14141414141415~1212121212121212-|
D|-x-x-x-x-x-x-x-x-x-x-x-x-x-x-x-x-||-x-x-x-x-x-x-x--x-x-x-x-x-x-x-x--|
A|-12121212101010108-8-8-8-7-7-7-7-||-12121212121213~1010101010101010-|
D|---------------------------------||---------------------------------|\
||    I tried to line them up but.. yeah you get it, right?           | \X2
GTR2                                                                  | /X2
E|---------------------------------||---------------------------------|/
B|---------------------------------||---------------------------------|
G|---------------------------------||---------------------------------|
D|-0-0-0-0-0-0-0-0-0-0-0-0-0-0-0-0-||-8-8-8-8-8-8-8-8-10-10-7-7-7-7---|
A|-0-0-0-0-0-0-0-0-0-0-0-0-0-0-0-0-||-8-8-8-8-8-8-8-8-10-10-7-7-7-7---|
D|-0-0-0-0-0-0-0-0-0-0-0-0-0-0-0-0-||-8-8-8-8-8-8-8-8-10-10-7-7-7-7---|





PRE-VERSE
GTR1
E|---------------------------------------------------------------------|
B|---------------------------------------------------------------------|
G|-------------------------------------10-12~10-9-10-9~-10-10-9-10-9---|
D|-------------------------------------x--x--x--x-x--x--x--x--x-x--x---|
A|-------------------------------------8--10~8--7-8--7~-8--8--7-8--7---|
D|---------------------------------------------------------------------|
||
GTR2
E|---------------------------------------------------------------------|
B|---------------------------------------------------------------------|
G|---------------------------------------------------------------------|
D|-00~0-0------00~0-0------00~0-0------3---3---3---3---8---8---8---8---|
A|-00~0-0------00~0-0------00~0-0------3---3---3---3---8---8---8---8---|
D|-00~0-0------00~0-0------00~0-0------3---3---3---3---8---8---8---8---|
   *           *           *




VERSE
GTR1
E|--------------------------------------------------------------------------------------|
B|--------------------------------------------------------------------------------------|
G|----------7------------7------------7-------10/-14-14-14-12--12/15-15-15-15-15-15-15--|
D|-00~0-0---x---00~0-0---x---00~0-0---x-------x---x--x--x--x---x--x--x--x--x--x--x--x---|
A|-00~0-0---5---00~0-0---5---00~0-0---5-------8-/-12-12-12-10--10/13-13-13-13-13-13-13--|
D|-00~0-0-------00~0-0-------00~0-0-----------------------------------------------------|
|| *            *            *
GTR2
E|--------------------------------------------------------------------------------------|
B|--------------------------------------------------------------------------------------|
G|----------7------------7-----------7---14---------------------------------------------|
D|-00~0-0---x---00~0-0---x---00~0-0--x---x----3----3----3----3----8----8----8----8------|
A|-00~0-0---5---00~0-0---5---00~0-0--5---12---3----3----3----3----8----8----8----8------|
D|-00~0-0-------00~0-0-------00~0-0-----------3----3----3----3----8----8----8----8------|
   *            *            *

GTR1
E|-----------------------------------------------------------------------------------------|
B|-----------------------------------------------------------------------------------------|
G|----------7------------7-9-10----------10------10/-14-14-14-12--12/15-15-15-15-15-15-15--|
D|-00~0-0---x---00~0-0---x-x-x--00~0-0---x-------x---x--x--x--x---x--x--x--x--x--x--x--x---|
A|-00~0-0---5---00~0-0---5-7-8--00~0-0---8-------8-/-12-12-12-10--10/13-13-13-13-13-13-13--|
D|-00~0-0-------00~0-0----------00~0-0-----------------------------------------------------|
|| *            *               *
|| 
GTR2
E|-----------------------------------------------------------------------------------------|
B|-----------------------------------------------------------------------------------------|
G|----------7------------7---------------7----14-------------------------------------------|
D|-00~0-0---x---00~0-0---x-----00~0-0----x----x--3----3----3----3----8----8----8----8------|
A|-00~0-0---5---00~0-0---5-----00~0-0----5----12-3----3----3----3----8----8----8----8------|
D|-00~0-0-------00~0-0---------00~0-0------------3----3----3----3----8----8----8----8------|
   *            *              *


GTR1
E|----------------------------------|-----------------------------------|
B|----------------------------------|-----------------------------------|
G|-------------(x3)-----------------|---10-12~10-9-10-9~-10-10-9-10-9---|
D|-00~0-0---------------------------|---x--x--x--x-x--x--x--x--x-x--x---|
A|-00~0-0-7h8---7h8---7h8p7h8-------|---8--10~8--7-8--7~-8--8--7-8--7---|
D|-00~0-0---------------------------|-----------------------------------|\
|| *                                                                      \X2
GTR2                                                                      /X2
E|----------------------------------|-----------------------------------|/
B|----------------------------------|-----------------------------------|
G|-------------(x3)-----------------|-----------------------------------|
D|-00~0-0---------------------------|---3---3---3---3---8---8---8---8---|
A|-00~0-0-10h12-10h12-10h12p10h12---|---3---3---3---3---8---8---8---8---|
D|-00~0-0---------------------------|---3---3---3---3---8---8---8---8---|
   *




CHORUS
GTR1                                   1:41
E|-------------------------------|-------------
B|-------------------------------|-------------
G|---10p9h10p9-----12p10p9-------|-   ---------
D|-------------10----------10-10-| x8  -0~-/---
A|-------------------------------|-   --0~-/---
D|-------------------------------|------0~-/---
||
GTR2 One chord for everytiime GTR1
 does that^
E|-------------------------------|
B|-------------------------------|
G|-------------------------------|
D|-0-------3-------5-------3-----| x2
A|-0-(x8)--3-(x8)--5-(x8)--3-(x8)|
D|-0-------3-------5-------3-----|





              PLAY VERSE AGAIN 
             (some of GTR2's octaves 
             are a little different but should sounds all the same)



              PLAY CHORUS AGAIN..



CLEAN BUILD UP PART 2:42
GTR1 (Clean with a weird delay effect) (first repeat is similar)
E|---------------------------------------------------------------------|
B|---------------8-----------8-----------------8-----------------------|
G|------10---------10------7---10---------9------------9~----9-9-------|
D|--12~----12-12--------12-------------10---10-----10------------12-10-| X4
A|---------------------------------0~~-----------------0~--0-----------|
D|---------------------------------------------------------------------|

I DONT THINK GUITAR 2 DOES ANYTHING HERE.




3:21 HEAVY AGAIN >:D
GTR1                         1. ending         2. ending
E|----------------------------|---------------|-------------------|
B|----------------------------|-----(x4)------|------(x4)---------|
G|----------------------------|---------------|-------------------|
D|-0~--0~0~--0~--0~--0~0~--0~-|---------------|-----------------0-|
A|-0~--0~0~--0~--0~--0~0~--0~-|-0000--8p7-----|-0000--8p7-------0-|
D|-0~--0~0~--0~--0~--0~0~--0~-|-0000----------|-0000------------0-|
||                              ****            ****
GTR2                          1. ending        2. ending
E|----------------------------|---------------|-------------------|
B|----------------------------|-----(x4)------|------(x4)---------|
G|----------------------------|---------------|-------------------|
D|-0~--0~0~--0~--0~--0~0~--0~-|---------------|-----------------0-|
A|-0~--0~0~--0~--0~--0~0~--0~-|-0000--8p7-----|-0000--12p10-----0-|
D|-0~--0~0~--0~--0~--0~0~--0~-|-0000----------|-0000------------0-|
                                ****            ****



3:42 JUST LIKE INTRO BUT FAST
GTR1
E|-------------------------------------------------------------|
B|-------------------------------------------------------------|
G|-------------------------------------------------------------|
D|----------------------------------------------------------8~-|
A|-----8-----7---(1)---10-7-8~-------8-----7---8---10-8-7---8~-|
D|-0-0---0-0---0-(8)-0-----------0-0---0-0---0---0--0-------8~-|
|| * *   * *   *     *           * *   * *   *   *  * 
GTR2
E|-------------------------------------------------------------|
B|-------------------------------------------------------------|
G|-------------------------------------------------------------|
D|-00--------------------------0~---------------------------8~-|
A|-00--------------------------0~---------------------------8~-|
D|-00--------------------------0~---------------------------8~-|



                  PLAY MAIN INTRO RIFF X1; ...THEN


OUTRO
GTR1
E|--------------------------|-----------------|
B|----------(x4)------------|-----------------|
G|--------------------------|-----------------|
D|-0-0-0--0-1~--0-0-0--0-1~-|--0-0-0----------|
A|-0-0-0--0-1~--0-0-0--0-1~-|--0-0-0----------|
D|-0-0-0--0-1~--0-0-0--0-1~-|--0-0-0----------|
||
GTR2
E|--------------------------|-----------------|
B|----------(x4)------------|-----------------|
G|--------------------------|-----------------|
D|-0-0-0--0-1~--0-0-0--0-1~-|--0-0-0----------|
A|-0-0-0--0-1~--0-0-0--0-1~-|--0-0-0----------|
D|-0-0-0--0-1~--0-0-0--0-1~-|--0-0-0----------|

FINISHED!!!
PLEASE RATE & COMMENT. THANKS.

comments
We did not receive enough feedback on this tab! Please rate:
print report bad tab
1 2 3 4 5
1 comment total.
0 reply
zohard1234 wrote on June 12 2013, 12:10 am

awesome tab. Play this song every day know

I want to post or [tab]
guest
You may want to rate the tab now too:
select rating
Please do not post tabs as comments. Select "correction" instead!