Oops, an error
Loading. Please wait.

Blind Blind Blind Tab

1,778 views 6 this week
no commentswrite comment
1 2 3 4 5
worth learning
x 6
add to favorites
launch autoscroll
font size
0
reset
how to read this tab
guitar tuner
Tab Pro tools
  • play this tab
  • loop segment
  • change instrument
  • show fretboard
  • metronome
Autoscroll
slow
fast
+/-
esc
set tempo
stop
Blindblindblind
Thee Silver Mt. Zion
13 Moons for 13 Blues

/:slide up
\:slide down
~:tremelo pick

Effects: Delay

e|----------------------------------------------------------------------|
B|----------------------------------------------------------------------|
G|----------------------------------------------------------------------|
D|----------------------------------------------------------------------|
A|-10--13--9--8--11--8--6--9------------6--8--9-------------------------|
E|-----------------------------------7--------------9/--2--4--6---------|



e|----------------------------------------------------------------------|
B|----------------------------------------------------------------------|
G|----------------------------------------------------------------------|
D|----------------------------------------------------------------------|
A|-10--13--10\--16--14--13--6--9--------6--8--9---9\11-----8---9--8-----|
E|-----------------------------------7------------------9------------9--|



e|---------------------------------------------------------------------|
B|---------------------------------------------------------------------|
G|-11~~~~~~~~~~~~~~~~~~~~~~~~~~~~~~~~~~~~~~~~~~~~~~~~~~~~~~~~~~~~~~~~~~|
D|---------------------------------------------------------------------|
A|---------------------------------------------------------------------|
E|---------------------------------------------------------------------|


4:51, Delay off
e|---------------------------------------------------------------------|
B|---------------------------------------------------------------------|
G|---------------------------------------------------------------------|
D|-1--4--6-------------------------------------------------------------|
A|---------------------------------------------------------------------|
E|---------------------------------------------------------------------|


Crunch
e|---------------------------------------------------------------------|
B|---------------------------------------------------------------------|
G|-------------------------------------------------9--9--9--9--9-9-----|
D|-6--6--6--6--6-6-6--9--9--9--9--4--4--4--4--4-4--9--9--9--9--9-9-----|
A|-6--6--6--6--6-6-6--9--9--9--9--4--4--4--4--4-4--7--7--7--7--7-7-----|
E|-4--4--4--4--4-4-4--7--7--7--7--2--2--2--2--2-2----------------------|


6:00, Violin or whatever but i tabbed it out anyways
e|---------------------------------------------------------------------|
B|----------------------------------------------14---------------------|
G|-12--15---10--13---8--11---------8--10--11--------11--13--15---------|
D|------------------------------9--------------------------------------|
A|---------------------------------------------------------------------|
E|---------------------------------------------------------------------|

 
Crunch
e|---------------------------------------------------------------------|
B|---------------------------------------------------------------------|
G|-------------------------------------------------9--9--9--9--9-9-----|
D|-6--6--6--6--6-6-6--9--9--9--9--4--4--4--4--4-4--9--9--9--9--9-9-----|
A|-6--6--6--6--6-6-6--9--9--9--9--4--4--4--4--4-4--7--7--7--7--7-7-----|
E|-4--4--4--4--4-4-4--7--7--7--7--2--2--2--2--2-2----------------------|

9:43, Solo
e|---------------------------------------------------------------------|
B|---------------------------------------------------------------------|
G|-13~~~~~~~~~~~15~~~---------------------15~~~~~~~~~~~~~~~~~~~~-------|
D|-------------------16~~~~~~~~~~~~~~~~~~~-----------------------------|
A|---------------------------------------------------------------------|
E|---------------------------------------------------------------------|

e|---------------------------------------------------------------------|
B|---------------------------------------------------------------------|
G|-13~~~~~~~~15~13~~~~11~~~~~~~~~~~~13---------------------------------|
D|---------------------------------------------------------------------|
A|---------------------------------------------------------------------|
E|---------------------------------------------------------------------|

The rest is unrecognizable

Tabbed by Pat

Peace
comments
print report bad tab
I want to post or [tab]
guest
You may want to rate the tab now too:
select rating
Please do not post tabs as comments. Select "correction" instead!