Oops, an error
Loading. Please wait.

A Reason For Broken Wings tab

version 1
version 1

Whole song

9,034 views 3 this week
5 commentsread comments
1 2 3 4 5
x 3
add to favorites
×
Save as Personal and add changes to this tab that will be seen only by you. Learn more ›
×
You can save this tab as Personal to edit and correct it or add notes. All changes will be seen only by you. Learn more »
launch autoscroll
font size
0
reset
how to read this tab
guitar tuner
edit
Autoscroll
slow
fast
+/-
esc
set tempo
stop
A SKYLIT DRIVE - A REASON FOR BROKEN WINGS

DROP D, PLAY AND ENJOY MUAHAH!

INTRO
|---------------------------------------------|
|------3--------3--------6--------------------|
|------6--------6--------9--------------------|
|-7-7------7-7------3-3------5-5-----5--------|
|-7-7------7-7------3-3------5-5-----5--------|
|-5-5------5-5------1-1------3-3-----3--------|
  . .      . .      . .      . .

|--------------------------------------------------------------|
|--------------------------------------------------------------|
|--------------------------------------------------------------|
|-7-7---7-------------7-7---7---7-7--3-3---3----5-5---5--------|
|-7-7---7-7-7-7-7-7---7-7---7---7-7--3-3---3----5-5---5--------|
|-5-5---5-5-5-5-5-5---5-5---5---5-5--1-1---1----3-3---3--------|
          . . . . . 

VERSE
THE BATTLE...
|--------------------------------------------5-0---3-0------|
|---5-0-3-0-5-0-6-0-5-0-3-5-0----5-0-3-0-5-0-----3-----3----|
|-----------------------------------------------------------|
|-7----------------------------7----------------------------|
|-7----------------------------7----------------------------|
|-5----------------------------5----------------------------|

BOMBS CASCADING...
|-----------------------------------------------------------|
|---5-0-3-0-5-0-6-0-5-0-3-5-0----5-0-3-0-5-0-5-3--3---------|
|------------------------------------------------5--5-4-----|
|-3----------------------------3----------------------------|
|-3----------------------------3----------------------------|
|-1----------------------------1----------------------------|

SPRING MORNING...
|-----------------------------------------------------------|
|-----------------------------------------------------------|
|---5-0-4-0-5-0-7-0-5-0-4-5-0----5-0-4-0-5-0-7-0-5-0-4-5-0--|
|-7----------------------------7----------------------------|
|-7----------------------------7----------------------------|
|-5----------------------------5----------------------------|

                             ON MEE..
|-----------------------------------------------------------|
|---5-0-3-0-5-0-6-0-5-0-3-5-0----5-0-3-0-5-0-5-3--3---------|
|------------------------------------------------5--5-4-----|
|-3----------------------------3----------------------------|
|-3----------------------------3----------------------------|
|-1----------------------------1----------------------------|

THE BATTLE...
|--------------------------------------------|
|--------------------------------------------|
|--------------------------------------------|
|-7----7-7---7//-------3----3-3---3//--------|
|-7----7-7---7//-------3----3-3---3//--------|
|-5----5-5---5//-------1----1-1---1//--------|

|--------------------------------------------------------------|
|-----5-5-5-5-5-----5-5-5-5-5-----3-3-3-3-3-----3-3-5-3--------|
|-------------------------------------------------------5------|
|-3-3-----------3-3-----------5-5-----------5-5----------------|
|-3-3-----------3-3-----------5-5-----------5-5----------------|
|-1-1-----------1-1-----------3-3-----------3-3----------------|

SPRING MORNING....
|--------------------------------------------------------------| /
|--------------------------------------------------------------| /
|-------5-5-----4-4-5-5-7-5-4-------5-5-----4-4-5-5-7-5-4------| /
|-7-7-7-----7-7---------------7-7-7-----7-7--------------------| /
|-7-7-7-----------------------7-7-7----------------------------| /
|-5-5-5-----------------------5-5-5----------------------------| /
                                                                 / [x2]
|--------------------------------------------------------------| /
|-----5-5-5-5-5-----5-5-5-5-5-----3-3-3-3-3-----3-3-5-3--------| /
|-------------------------------------------------------5------| /
|-3-3-----------3-3-----------5-5-----------5-5----------------| /
|-3-3-----------3-3-----------5-5-----------5-5----------------| /
|-1-1-----------1-1-----------3-3-----------3-3----------------| /

IM NOOOT....
|--------------------------------------------------------------|
|--------------------------------------------------------------|
|-------5-5-----4-4-5-5-7-5-4-------5-5-----4-4-5-5-7-5-4------|
|-7-7-7-----7-7---------------5-5-5-----7-7--------------------|
|-7-7-7-----------------------5-5-5----------------------------|
|-5-5-5-----------------------3-3-3----------------------------|

THE BATTLE....
|---------------------------------------------------|
|---------------------------------------------------|
|---------------------------------------------------|
|-3-3-3-3-3-3-3-3-3-3-5-5-5-5-5-5-5-5-5-5-5---------|
|-3-3-3-3-3-3-3-3-3-3-5-5-5-5-5-5-5-5-5-5-5---------|
|-1-1-1-1-1-1-1-1-1-1-3-3-3-3-3-3-3-3-3-3-3---------|


DREEAAM OF MEE....
|---------------9-10-12--17--0--15----------------9-10-12-17-0-17-0-15-0-15-0----|
|-12//10-9-10-12--------------------12//10-9-10-12-------------------------------|
|--------------------------------------------------------------------------------|  [x4]
|--------------------------------------------------------------------------------|
|--------------------------------------------------------------------------------|
|--------------------------------------------------------------------------------|


|-------------------------|
|------3--------3---------|
|------6--------6---------|
|-7-7------7-7------------|
|-7-7------7-7------------|
|-5-5------5-5------------|
  . .      . .    

GRASPING OF...
|-----------------15-15-15--------15-15-----20-20-20-19-19-19-15-15-15-12-12-12-15-----|
|---------13-13-13--------13-13-13-----13-13---------------------------------------------|
|-14-14-14-------------------------------------------------------------------------------|   [x4]
|----------------------------------------------------------------------------------------|
|----------------------------------------------------------------------------------------|
|----------------------------------------------------------------------------------------|

"THIS IS A REASON FOR BROKEN WINGS"


SPRING MORNING....
|--------------------------------------------------------------| /
|--------------------------------------------------------------| /
|-------5-5-----4-4-5-5-7-5-4-------5-5-----4-4-5-5-7-5-4------| /
|-7-7-7-----7-7---------------7-7-7-----7-7--------------------| /
|-7-7-7-----------------------7-7-7----------------------------| /
|-5-5-5-----------------------5-5-5----------------------------| /
                                                                 / [x2]
|--------------------------------------------------------------| /
|-----5-5-5-5-5-----5-5-5-5-5-----3-3-3-3-3-----3-3-5-3--------| /
|-------------------------------------------------------5------| /
|-3-3-----------3-3-----------5-5-----------5-5----------------| /
|-3-3-----------3-3-----------5-5-----------5-5----------------| /
|-1-1-----------1-1-----------3-3-----------3-3----------------| /

IM NOOOT....
|--------------------------------------------------------------|
|--------------------------------------------------------------|
|-------5-5-----4-4-5-5-7-5-4-------5-5-----4-4-5-5-7-5-4------|
|-7-7-7-----7-7---------------5-5-5-----7-7--------------------|
|-7-7-7-----------------------5-5-5----------------------------|
|-5-5-5-----------------------3-3-3----------------------------|

THE BATTLE....
|---------------------------------------------------|
|---------------------------------------------------|
|---------------------------------------------------|
|-3-3-3-3-3-3-3-3-3-3-5-5-5-5-5-5-5-5-5-5-5---------|
|-3-3-3-3-3-3-3-3-3-3-5-5-5-5-5-5-5-5-5-5-5---------|
|-1-1-1-1-1-1-1-1-1-1-3-3-3-3-3-3-3-3-3-3-3---------|


DREEAAM OF MEE....
|---------------9-10-12--17--0--15----------------9-10-12-17-0-17-0-15-0-15-0----|
|-12//10-9-10-12--------------------12//10-9-10-12-------------------------------|
|--------------------------------------------------------------------------------|  [x10]
|--------------------------------------------------------------------------------|
|--------------------------------------------------------------------------------|
|--------------------------------------------------------------------------------|



|--------------|
|---12//10-----|
|--------------|
|--------------|
|--------------|
|--------------|


THE END ^^ VIDEO VIDEO!

http://www.youtube.com/watch?v=kvCJk-_XviE

THANX,  FREAKY WII ^^

            
            
Suggest correction
Creating personal tab
Creating personal tab
You can edit any tab online and save it as your Personal.

You can edit, replace or remove any tab part or add personal notes – all changes will be seen only by you.

Personal tabs can be accessed anytime from any device, even offline.
Learn more »
Give kudos to tab author, rate the tab!
1 2 3 4 5
comments
print report bad tab
5 comments total. Showing first comments.
0 reply
metalminded07 177 Jun 11, 2007 02:56 PM

why would this be in drop d if you're just gonna play normal power chords. so sry try(and the rest of your A Skylit Drive tabs are kinda wrong too)

+1 reply
metalminded07 177 Jun 11, 2007 03:08 PM

sry i would also like to add that although its not a very accurate tab it does sound ok

0 reply
nate31985 30 Oct 09, 2008 06:45 AM

at 2:09 it should go like this

e|-------------------------13-13-13--10-10-10--13-13-13-----18-18-18--17-17-17----------------
b|-------------------------------------------------------------------------------------------18-18-15-15-18-18
g|12-12-12--15-15-15---------------------------------------------------------------------------|

guest
You may want to rate the tab now too:
select rating
Wanna post a correction for this tab? Suggest correction