Oops, an error
Loading. Please wait.

She Watched The Sky album bass

1,964 views 1 this week
no commentswrite comment
1 2 3 4 5
x 4
add to favorites
×
Save as Personal and add changes to this tab that will be seen only by you. Learn more ›
×
You can save this tab as Personal to edit and correct it or add notes. All changes will be seen only by you. Learn more »
launch autoscroll
font size
0
reset
guitar tuner
edit
Autoscroll
slow
fast
+/-
esc
set tempo
stop
Author
+++++++++++++++++++++++++++++++++++++++
| A Skylit Drive- She Watched The Sky |
+++++++++++++++++++++++++++++++++++++++

Bass Tab, Album: "She Watched The Sky" -- 2007
All tabs by: RaiLeff
E-Mail: Underground__Dora@Hotmail.Com

These guys rock!
And here's their first album with awesome songs
on bass 
Disfruten!


Tuning: Drop D (DADG) and EADG

Tracks:

1. Ability To Create A War
2. Drown The City
3. The All Star Diaries
4. Hey Nightmare, Where Did You Get Them Teeth?
5. The Past, The Love, The Memories
6. A Reason For Broken Wings
7. According To Colombus

_________________________________________________

1. Ability To Create A War

Tuning: Drop D (DADG)

Intro
1.
G|-------|
D|-------|
A|-1~-1~-|
D|-------|

"Save Me!!!"
2.
G|------------------------------------------|
D|------------------------------------------|
A|---------------------------------1~-1~----|--x2
D|-000x--00-0000000-0x--000-0x--00----------|

"Im lost in the mind of a moster..."
3.
G|---------------------------------------------------|
D|---------------------------------------------------|
A|--------------------------------------------1~--1~-|--x2
D|-000-000-0-0-0-000-000-0-0-0-000-000-0-0-0-0---0---|

"Save Me!!!"
4.
G|---------------------------------------|
D|---------------------------------------|
A|--------------------------------1~--1~-|--x2
D|-000x--00-000000000x--000x--00-0---0---|

5.
G|----------------------------------------------------|
D|----------------------------------------------------|
A|----------------------------------------------------|
D|-0~-------------------------------------------------|

Lyrics:

The sky parts and my prayers fall before me
Will faith be the question
Or with the question test my faith
Save me
I am lost in the mind of a monster
Save me

________________________________________________________

2. Drown The City

Tuning: Drop D (DADG)

Intro
"Lie to me..." 
1.
G|----------------------------------------------------------------|
D|----------------------------------------------------------------|
A|-----------------1111x--111-333------------------1111x--111-333-|
D|-0000x--000-000------------------0000x--000-000-----------------|

Verse
"Forget it all..."
2.
G|-------------------------------------------|
D|-0~----------------------------------------|
A|-----------1~------------------1~----3~----|
D|---------------------0~--------------------|

Pre-Chorus
"The place you lay..."
3.
G|-------------------------------------------------------------------------------------|
D|-------------------------------------------------------------------------------------|
A|-------1~----------1~-3~-------1~----------1~-3~-1-1-1-1--1-1-1-1--3-3-3-3--3-3-3-3--|--x2
D|-00000-------00000-------00000-------00000-------------------------------------------|

Chorus
"So now you're screaming at the top of your lungs..."
4.
G|------------------------------------------------------------------------------|
D|----------------------------------------------------------------5\3-3\2-2/3-3-|
A|-------------------11111111-11111111-------------------33333333---------------|--x2
D|-00000000-00000000-------------------33333333-33333333------------------------|

Outro
"I wont lie!" 
5.
G|-------------------------------------|
D|-------------------------------------|
A|-------------------------------------|
D|-00~----00~--------00~----00~--------|

"I wont lie!"
6.
G|-------------------------------------------------------------------------|
D|----3~---------------7\5-5\3-3\2-2/3---------------------7\5-5\3-3\2-2/3-|
A|----------------------------------------3~-------------------------------|
D|-00-------00~------------------------00-------00~------------------------|

Interlude
7.
G|-------------------------------------|
D|-------------------------------------|
A|-11111111-11111111-33333333-33333333-|
D|-------------------------------------|

Verse
"The place you lay..."
8.
G|-------------------------------------------------------------------------------------|
D|-------------------------------------------------------------------------------------|
A|-------1~----------1~-3~-------1~----------1~-3~-1-1-1-1--1-1-1-1--3-3-3-3--3-3-3-3--|--x2
D|-00000-------00000-------00000-------00000-------------------------------------------|

Chorus
"So now you're screaming at the top of your lungs..."
9.
G|------------------------------------------------------------------------------|
D|----------------------------------------------------------------5\3-3\2-2/3-3-|
A|-------------------11111111-11111111-------------------33333333---------------|--x2
D|-00000000-00000000-------------------33333333-33333333------------------------|

Outro
"I wont lie!" 
10.
G|-------------------------------------|
D|-------------------------------------|
A|-------------------------------------|
D|-00~----00~--------00~----00~--------|

"I wont lie!"
11.
G|-------------------------------------------------------------------------|
D|----3~---------------7\5-5\3-3\2-2/3---------------------7\5-5\3-3\2-2/3-|
A|----------------------------------------3~-------------------------------|
D|-00-------00~------------------------00-------00~------------------------|

Interlude
12.
G|-------------------------------------|
D|-------------------------------------|
A|-11111111-11111111-33333333-33333333-|
D|-------------------------------------|

Chorus
"So now you're screaming at the top of your lungs..."
13.
G|------------------------------------------------------------------------------|
D|----------------------------------------------------------------5\3-3\2-2/3-3-|
A|-------------------11111111-11111111-------------------33333333---------------|--x2
D|-00000000-00000000-------------------33333333-33333333------------------------|

"So now you're screaming at the top of your lungs..."
14.
G|------------------------------------------------------------------------------|
D|----------------------------------------------------------------5\3-3\2-2/3-3-|
A|-------------------11111111-11111111-------------------33333333---------------|
D|-------------------------------------33333333-33333333------------------------|

"To inflict all the pain..."
15.
G|------------------------------------------------------------------------------|
D|----------------------------------------------------------------5\3-3\2-2/3-3-|
A|-------------------11111111-11111111-------------------33333333---------------|
D|-00000000-00000000-------------------33333333-33333333------------------------|

Outro
16.
G|---------------------------------------|
D|-------333-------333-------333---------|
A|-------------------------------1-1-3-3-|--x3
D|-00~-------00~-------00~---------------|

17.
G|-----------------------------------------------|
D|-------333-------333-------333-----------------|
A|-------------------------------1-1-3-3-1-1-3-3-|
D|-00~-------00~-------00~-----------------------|

18.
G|-------------------------------------------|
D|-------------------------------------------|
A|-----------1~------------------1~----3~----|
D|-0~------------------0~--------------------|

19.
G|-------------------------------------------------|
D|-------------------------------------------------|
A|-----------1~------------------1~----3~----------|
D|-0~------------------0~--------------------0~----|

Lyrics:

Lie to me
I wont lie
Tape your mouth shut
Lie to me
I wont lie
Swallow your tongue

Forget it all I have you buried in my walls
I’ll use your skin to cover up my scares

The place you lay in a bloody hall of fame
The ropes that tied your hands right by your side…

So now you’re screaming at the top of your lungs
Hoping for someone to come
Hoping they’ll bring a gun
To inflict all the pain
I caused upon you.

I won’t lie

Immerse me cut my throat
If you want me skin deep you better act now.

_________________________________________________________

3. The All Star Diaries

Tuning: EADG

Intro
"Why you so scared?"
1.
G|-----------------------------------------------------|
D|-----------------------------------------------------|
A|-0000--0000-0000-0000--0000-0000---------------------|
E|---------------------------------1~--------1~--------|

2.
G|-----------------------------------------------------|
D|-----------------------------------------------------|
A|-----------------------------------------------------|
E|-3333--3333-3333-3333--3333-3333-1~--------1~--------|

"I am a non worthy sinner..." 
3.
G|-----------------------------------------|
D|-----------------------------------------|
A|-0~---0~---0~---0~-----------------------|--x2
E|---------------------1~---1~---1~---1~---|

Verse
"Sing a song to me..."
4.
G|-------------------------------------------------------------------------|
D|-------------------------------------------------------------------------|
A|-00000000-00000000-------------------00000000-00000000-------------------|--x2
E|-------------------11111111-11111111-------------------11111111-11111111-|

Chorus
"Wanting more..." 
5.
G|--------------------------------------------------|
D|------------------2-0-3-2-------------------------|
A|-0000~------0000~---------3-----------------------|--x2
E|----------------------------3333333x---3333333x---|

Verse
"Have a seat in my car..."
4.
G|-------------------------------------------------------------------------|
D|-------------------------------------------------------------------------|
A|-00000000-00000000-------------------00000000-00000000-------------------|--x2
E|-------------------11111111-11111111-------------------11111111-11111111-|

Chorus
"Why you so..."
5.
G|-----------------------------------------------------|
D|-----------------------------------------------------|
A|-0000--0000-0000-0000--0000-0000---------------------|
E|---------------------------------1~--------1~--------|

6.
G|-----------------------------------------------------|
D|-----------------------------------------------------|
A|-----------------------------------------------------|
E|-3333--3333-3333-3333--3333-3333-1~--------1~--------|

Outro
7.
G|-----------------------------------------|
D|-----------------------------------------| For a few times
A|-0~--------0~----------------------------|
E|---------------------1~--------1~--------|

Verse
"With your hands on me..."
8.
G|-------------------------------------------------------------------------|
D|-------------------------------------------------------------------------|
A|-00000000-00000000-------------------00000000-00000000-------------------|--x2
E|-------------------11111111-11111111-------------------11111111-11111111-|

Chorus
"Why you so..."
9.
G|-----------------------------------------------------|
D|-----------------------------------------------------|
A|-0000--0000-0000-0000--0000-0000---------------------|
E|---------------------------------1~--------1~--------|

10.
G|-----------------------------------------------------|
D|-----------------------------------------------------|
A|-----------------------------------------------------|
E|-3333--3333-3333-3333--3333-3333-1~--------1~--------|

Outro
11.
G|--------------------------------------------------------|
D|--------------------------------------------------------|
A|-0~----1/2x----------------0~----1/2x-------------------|
E|-----------------------------------------------------1~-|

12.
G|--------------------------------------------------------|
D|--------------------------------------------------------|
A|-0000~---1/2--------------0000~----1/2------------------|
E|-------------1111~---------------------1111~---------1~-|

Chorus
"Why you so..."
13.
G|----------------------------------|
D|----------------------------------|
A|-0000--0000-0000-0000--0000-0000x-|
E|----------------------------------|

Lyrics:

Why you so scared?

I am a non worthy sinner
Still I pray for you
When will you be the star in the sky for me
All eyes on you

Sing a song for me
Sing it till you see my face
Lay your trust in me
I’ll be your remedy note

Scrambling to shut the door
Leave the cold wanting more
Scrambling to shut the door
Leave the cold wanting more

Embrace your mind
Set it free
Remember everything you lost

Have a seat in my car
We'll take the 99 north past three
I am where still breathing now
I’m not leaving why are you so scared?
Recline the seat back, let's drive
North till the sunrise

Why you so...
I’m not leaving from this parade till I die
Why you so scared?
Why you so scared?

With your hands on me
I’ll keep my eyes on you
I’ll promise to be
A little secret that will pull you through
Secret passage through the weight of the world

Why you so,
I’m not leaving from this parade till I die
Why you so scared?
Why you so scared?

Hands at my side oh will I live or die
I'll be strong
This is my life
Through open eyes
This is my life
Through open eyes
Why you so scared?

________________________________________________________________

4. Hey Nightmare, Where Did You Get Them Teeth?

Tuning: Drop D (DADG)

Intro
"Run"
1.
G|------------------------------------------------------|
D|------------------------------------------------------|
A|------------------------------------------------------|
D|-22222222-2222x----22222222-222222-0-2-222222-2222222-|

"Put your vengeance aside..."
2.
G|------------------------------------|
D|------------------------------------|
A|-----3-3-3~-----3-3-3~--------------|
D|-0-0--------0-0--------0--0~--------|

"Collide your sword with mine..."
3.
G|------------------------------------------------------------------------|
D|------------------------------------------------------------------------|
A|-----------------------------------------3-3-3~-----3-3-3~--------------|
D|-22222222-222222-0-2-2222222-2222222-0-0--------0-0--------0--0~--------|

"Be this I know..."
4.
G|--------------------------------------------------------------------------------|
D|--------------------------------------------------------------------------------|
A|-------------------------------------33333333-33333333-33333333-3-3-3-3~--------|--x2
D|-22222222-22222222-00000000-00000000--------------------------------------------|

"Cut threw the limbs..."
5.
G|-------------------------------------------------------------------|
D|-----555-----555-----777-----777-----------------------------------|
A|-333-----333-----555-----555---------------------------------------|
D|---------------------------------2222222222222220-2222222222222222-|

"Cut threw the limbs..."
6.
G|-------------------------------------------------------------------|
D|-----555-----555-----777-----777-----------------------------------|
A|-333-----333-----555-----555---------------------------------------|
D|---------------------------------22x--------------22x--------------|

"She, watching the sky burn..."
7.
G|--------------------------------------------------------------------------------|
D|-----------5-4-0-2~-------------------------------5-4-0-2~----------------------|
A|-3~--------------------3~---------------3~--------------------3~--------55--55--|
D|--------------------------------00--00------------------------------------------|

"Follow the light of the moon..."
8.
G|-----------------------------------------------------------------------------------|
D|-----------5-4-0-2~-------------------------------5-4-0-2~-------------------------|
A|-3~--------------------3~---------------3~--------------------3~--------55--55--7x-|
D|--------------------------------00--00---------------------------------------------|

"Forgive me"
9.
G|--------------------------------------------------------------------------------|
D|--------------------------------------------------------------------------------|
A|-------------------------------------33333333-33333333-33333333-3-3-3-3~--------|
D|-22222222-22222222-00000000-00000000--------------------------------------------|

"Cut threw the limbs..."
10.
G|-------------------------------------------------------------------|
D|-----555-----555-----777-----777-----------------------------------|
A|-333-----333-----555-----555---------------------------------------|
D|---------------------------------2222222222222220-2222222222222222-|

"Cut threw the limbs..."
11.
G|----------------------------------------------------|
D|----------------------------------------------------|
A|-333-----333-----555-----555------------------------|
D|-----555-----555-----777-----777-22x----------------|

12.
G|-----------------------------------------------------------------------|
D|-----------------------------------------------------------------------|
A|----------------333--------------333--------------333--------------333-|
D|-22x---------22-----22x-------22-----22x-------22-----22x-------22-----|

"Conserve protect your life..."
13.
G|--------------------------------------------------------------------|
D|--------------------------------------------------------------------|
A|--------------------------------------------------------------------|
D|-222222222222x----222222222222x----2222222222222x----2222222222222x-|

"Your life is my well being..."
14.
G|-------------------------------------------|
D|-------------------------------------------|
A|-----------3~--------------------5~--------|
D|-2~------------------5~--------5-----------|

"I will not rest one day..."
15.
G|-------------------------------------------|
D|-------------------------------------------|
A|-----------3~--------------------5~--------|
D|-2~------------------5~--------------------|

3:15
16.
G|-------------------------------------------------------------------------|
D|-22222222-22222222-00000000-00002222-------------------00000000-00000000-|
A|-------------------------------------33333333-33333333-------------------|
D|-------------------------------------------------------------------------|

"For god's sake..."
17.
G|-------------------------------------------------------------------------|
D|-------------------------------------------------------------------------|
A|-------------------33333333-33333333-------------------------------------|--x3
D|-22222222-22222222-------------------55555555-55555575-44444444-00000000-|

"Warm..."
18.
G|----------------------------------------------------------------------------------|
D|----------------------------------------------------------------------------------|
A|-------------------3~-------------------------------------------------------------|
D|-2~----------------------------------5~----------------4~-------5~--4~--2~--------|

Lyrics:

Run, for your life now
Don’t you see your princess is gone?
Pull your vengeance aside
Let’s make it rain blood tonight

Collide your sword with mine, I’ll send your soul
To the hell where it came from
Be this I know you’ll never set your eyes
On a quest you can’t survive
It’s no surprise that your head hangs
From my heads your mouth can’t sin or lie

Cut threw the limbs
Stab threw the enemies eyes
Any last man will die

She, watching the sky burn oh how it burns
Run for the skylines run for the skylines darling
Follow the light of the moon just stay alive

Forgive me
For tomorrow
If I’m late
I’ll died before I wake

What’s left for you
You wanted life
I showed you love
Conserve protect your life

Your life is my well being
And if lay in shadows then so be it
But let it be known that this soldier will not rest a day
Until he lays in the glamour and the grace of his bride
I will not rest one day until my victims blood is shed up
And down the shorelines

For gods sake please
Don’t you forgive me
I will wait for you
Race the sun
Pray for nothing warm

_________________________________________________________

5. The Past, The Love, The Memories

Tuning: Drop D (DADG)

Intro
1.
G|---------------------------------------------------------------------------------|
D|---------------------------------------------------------------------------------|
A|-3333---3333-3333-3333-3333---3333-3333-5555-------------------------------------|--x2
D|-----------------------------------------------2202---2202-2202-0000---0000-0000-|

2.
G|-----------------------------------------|
D|-----------------------------------------|
A|-----------------------------------------|--x4
D|-2~--------2~--------0~--------0~--------|

Verse
"Let me take this time..."
3.
G|-------------------------------------------------------------------------|
D|-22222222-22222222-22222222-22222222-------------------------------------|
A|-------------------------------------33333333-33333333/55555555-55555555-|
D|-------------------------------------------------------------------------|

4.
G|-------------------------------------------------------------------------|
D|-22222222-22222222-22222222/55555555-------------------------------------|
A|-------------------------------------33333333-33333333/55555555-55555555-|
D|-------------------------------------------------------------------------|

Pre-Chorus
5.
G|-------------------------------------|
D|-22222222-22222222-22222222-22222222-|
A|-------------------------------------|
D|-------------------------------------|

Chorus
6.
G|-----------------------------------------------------------------|
D|-----------------------------------------------------------------|
A|-33333333-33333333-55555555-55555555-----------------------------|--x3
D|-------------------------------------2202-2202-------------------|

7.
G|-----------------------------------------------|
D|-----------------------------------------------|
A|-33333333-33333333-55555555-55555555-----------|--x4
D|-------------------------------------2202-2202-|

Outro
8.
G|-----------------------------------------|
D|-----------------------------------------|
A|-----------------------------------------|--x4
D|-2~--------2~--------0~--------0~--------|

Verse
9.
G|-------------------------------------------------------------------------|
D|-22222222-22222222-22222222-22222222-------------------------------------|
A|-------------------------------------33333333-33333333/55555555-55555555-|
D|-------------------------------------------------------------------------|

10.
G|-------------------------------------------------------------------------|
D|-22222222-22222222-22222222/55555555-------------------------------------|
A|-------------------------------------33333333-33333333/55555555-55555555-|
D|-------------------------------------------------------------------------|

Pre-Chorus
11.
G|-------------------------------------|
D|-22222222-22222222-22222222-22222222-|
A|-------------------------------------|
D|-------------------------------------|

Chorus
12.
G|-----------------------------------------------------------------|
D|-----------------------------------------------------------------|
A|-33333333-33333333-55555555-55555555-----------------------------|--x4
D|-------------------------------------2202-2202-------------------|

Bridge
13.
G|-----------------------------|
D|----------------------000000-| For lots of times
A|---------------333333--------|
D|-222222-000000---------------|

14.
G|-----------------------------|
D|-----------------------------|
A|---------------3~------------|
D|-2~-----0~-------------------|

________________________________________________________________

6. A Reason For Broken Wings

Tuning: Drop D (DADG)

Intro
1.
G|----------------------------------------------------|
D|----------------------------------------------------|
A|----------------------------------------------------|
D|-55-5~-------55-5~--------11-1~--------33-3~--------|

2.
G|-------------------------------------------------------------------------|
D|-------------------------------------------------------------------------|
A|-------------------------------------------------------------------------|
D|-55555555-55555555-55555555-55555555-11111111-11111111-33333333-3~-------|

Verse
"The battle loves to choose..."
3.
G|-------------------------------------------------------------------------|
D|-------------------------------------------------------------------------|
A|-------------------------------------------------------------------------|
D|-55555555-55555555-55555555-55555555-11111111-11111111-11111111-11111111-|

"Spring morning rain..."
4.
G|-----------------------------------------------------------|
D|-----------------------------------------------------------|
A|-----------------------------------------------------------|
D|-5x------1-3-5x--------11111111-11111111-33333333-33333333-|

"The battle is one..." 
5.
G|-------------------------------------------|
D|-------------------------------------------|
A|-------------------------------------------|
D|-5x------1-3-5x--------1x------3-1x--------|

Pre-Chorus
6.
G|-------------------------|
D|-------------------------|
A|-------------------------|
D|-1~----1~----3~----3~----|

Verse
"Spring morning rain..."
7.
G|-------------------------------------------------------------------------|
D|-------------------------------------------------------------------------|
A|-------------------------------------------------------------------------|
D|-55555555-55555555-55555555-55555555-11111111-11111111-33333333-33333333-|

8.
G|-----------------------------------------------|
D|-----------------------------------------------|
A|-----------------------------------------------|
D|-5x------5-3-5x--------1~----1~----3~----3~----|

9.
G|-----------------------------------------------|
D|-----------------------------------------------|
A|-----------------------------------------------|
D|-5x------5-4-3x--------1~----1~----3~----3~----|

Chorus         (1 not 11)
"Dream of me..."  
10.
G|----------------------------------------------------------------|
D|----------------------------------------------------------------|
A|-------------------------11---------------------------------1---|--x2
D|-11-1-1-11-1-11-1-55-5-5----3-33-3--11-1-1-11-1-11-1-55-5-5---3-|

Outro
11.
G|----------------------------|
D|----------------------------|
A|----------------------------|
D|-55-5~--------55-5~---------|

Verse
"Grasping off your sheets..."
12.
G|-------------------------------------------------------------|
D|-------------------------------------------------------------|
A|-------------------------------------------------------------|
D|-55-55-55-5-55-5-11-11-11-1-11-1-55-55-55-5-55-5-11-11x------|

13.
G|--------------------------------------------------------------------|
D|--------------------------------------------------------------------|
A|--------------------------------------------------------------------|
D|-55-55-55-5-55-5-11-11-11-1-11-1-55-55-55-5-55-5-11-11-11-11-1-1-1x-|

This is a reason for broken wings!!!

Verse
"Spring morning rain..."
14.
G|-------------------------------------------------------------------------|
D|-------------------------------------------------------------------------|
A|-------------------------------------------------------------------------|
D|-55555555-55555555-55555555-55555555-11111111-11111111-33333333-33333333-|

15.
G|-----------------------------------------------|
D|-----------------------------------------------|
A|-----------------------------------------------|
D|-5x------5-3-5x--------1~----1~----3~----3~----|

16.
G|-----------------------------------------------|
D|-----------------------------------------------|
A|-----------------------------------------------|
D|-5x------5-4-3x--------1~----1~----3~----3~----|

Chorus         (1 not 11)
"Dream of me..."  
17.
G|----------------------------------------------------------------|
D|----------------------------------------------------------------|
A|-------------------------11---------------------------------1---|--x2
D|-11-1-1-11-1-11-1-55-5-5----3-33-3--11-1-1-11-1-11-1-55-5-5---3-|

"Close your eyes..."
18.
G|----------------------------------------------------------------|
D|----------------------------------------------------------------|
A|-------------------------11---------------------------------1---|
D|-11-1-1-11-1-11-1-55-5-5----3-33-3--11-1-1-11-1-11-1-55-5-5---3-|

Play for like a thousand times

Finish with
19.
G|------|
D|------|
A|------|
D|-1-1x-|

Lyrics: 

The battle loves to choose its fights
Collapse the sight of soldiers eyes
Bombs cascading over me
May my body rest in pieces

Spring mourning rain
Heal the wombs in me
On me
The battle is one
I’m now coming home

Spring mourning rain
Stitch me up with strings of symphonies

The battle is one
Close your eyes just dream
I’m not coming
Close your eyes just dream

Dream of me, lock inside your mind I’ll hide
Scream my name, fell me breath along your thighs
Close your eyes just dream

Grasping of your sheets
Turn out the lights
Holding on to memories
Never felt so right

Shaking, Squirming

In your skin tonight
Oh my Marie, oh my Marie

This is a reason for broken wings

Dream of me, lock inside your mind I’ll hide
Scream my name, fell me breath along your thighs
Close your eyes just dream

___________________________________________________________

7. According To Colombus

Tuning: Drop D (DADG)

Intro
"Save meee!!"
1.
G|-----------------------------------------------------------------|
D|-----------------------------------------------------------------|
A|-----------------11-1111-111-111-----------------33-3333-333-333-|
D|-00-0000-000-000-----------------33-3333-333-333-----------------|

"Cold front coming..."
2.
G|------------------------------------------------------------------------|
D|------------------------------------------------------------------------|
A|-11111111-11111111-11111111-11111111-33333333-33333333-33333333-3~--3~--|
D|------------------------------------------------------------------------|

Verse
"The rest of your life..."
3.
G|-----------------------------------------------------------------------|
D|-----------------------------------------------------------------------|
A|-------------------------5000-1~----------------------------5000-1~----|--x2
D|-00000000x--0x--00x-00000-----------00000000x--0x--00x-00000-----------|

Chorus
"Meet me at the skylines..." 
4.
G|------------------------------------------------------------------------|
D|------------------------------------------------------------------------|
A|-------------------------------------11111111-11111111-11111111-111-111-|
D|-33333333-33333333-33333333-30000000------------------------------------|

"Meet me at the skylines..."
5.
G|------------------------------------------------------------------------|
D|----------02222333------------------------------------------------------|
A|-------------------11111111-11111111------------------------------------|
D|-00000000----------------------------33333333-33333333-33333333-000-000-|

Outro
6.
G|-------------------------------------------------------------------------|
D|----------------------------------------------02222333-------------------|
A|-11111111-11111111-11111111-11111x---------------------11111111-11111111-|
D|-------------------------------------00000000----------------------------|

Intro
"Save meee!!"
7.
G|-----------------------------------------------------------------|
D|-----------------------------------------------------------------|
A|-----------------11-1111-111-111-----------------33-3333-333-333-|
D|-00-0000-000-000-----------------33-3333-333-333-----------------|

"Cold front coming..."
8.
G|------------------------------------------------------------------------|
D|------------------------------------------------------------------------|
A|-11111111-11111111-11111111-11111111-33333333-33333333-33333333---------|
D|------------------------------------------------------------------------|

Verse
"The rest of your life..."
9.
G|-----------------------------------------------------------------------|
D|-----------------------------------------------------------------------|
A|-------------------------5000-1~----------------------------5000-1~----|--x2
D|-00000000x--0x--00x-00000-----------00000000x--0x--00x-00000-----------|

Chorus
"Meet me at the skylines..."
10.
G|------------------------------------------------------------------------|
D|------------------------------------------------------------------------|
A|-------------------------------------11111111-11111111-11111111-111-111-|
D|-33333333-33333333-33333333-30000000------------------------------------|

"Meet me at the skylines..."
11.
G|------------------------------------------------------------------------|
D|----------02222333------------------------------------------------------|
A|-------------------11111111-11111111------------------------------------|
D|-00000000----------------------------33333333-33333333-33333333-000-000-|

Outro
12.
G|-------------------------------------------------------------------------|
D|----------------------------------------------02222333-------------------|
A|-11111111-11111111-11111111-11111x---------------------11111111-11111111-|
D|-------------------------------------00000000----------------------------|

Bridge
"Meet me at the skylines!!!
13.
G|-----------------------------------------------------------------------|
D|-----------------------------------------------------------------------|
A|-----------------------------------11111111-11111111-11111111-11111111-|--x3
D|-00x--00x--000000-00x--00x--0-0-0--------------------------------------|

"Meet me at the skylines!!!
14.
G|--------------------------------------------------------------------|
D|--------------------------------------------------------------------|
A|--------------------------------------------------------------------|
D|-00x--00x--000000-00x--00x--0-0-0--00x--00x--000000-00x--00x--0-0-0-|

"I dont think you know..."
15.
G|---------------------------------------------------------------------------|
D|---------------------------------------------------------------------------|
A|-------------------------------------1-1-1x----1-1-1x----1-1-1x---1--1-1-1-|--x2
D|-00000000-00000000-00000000-00000000--------------------------------3-3-3--|

"I dont think you know..."
16.
G|------------------------------------------------------------|
D|------------------------------------------------------------|
A|------------------------------------------------------------|
D|-0~---------------------------------------------------------|

Lyrics:

Save me
The skin that’s stretched across your bones
The scent that lacks the innocents I know
Cold front coming, like blisters threw your pores
Breathing you’ll trust me darling
I’m the sword inside your stone

The rest of your life
May rest in my eyes

Meet me at the skylines
I’ll wait for you to go
I’ll wait for you to go

I don’t think you know
What these words mean
I don’t think you know
What we could be
I’ll wait forever cause I think you’re the one.

___________________________________________________________________

END

That was it, I hope you enjoyed and rate fairly please

+++++++++++++++++++++++++++++++++
| RaiLeff                       |
| Underground__Dora@Hotmail.Com |
+++++++++++++++++++++++++++++++++

            
            
Suggest correction
Creating personal tab
Creating personal tab
You can edit any tab online and save it as your Personal.

You can edit, replace or remove any tab part or add personal notes – all changes will be seen only by you.

Personal tabs can be accessed anytime from any device, even offline.
Learn more »
comments
print report bad tab
guest
You may want to rate the tab now too:
select rating
Wanna post a correction for this tab? Suggest correction