Oops, an error
Loading. Please wait.

Bad Romance Tab

1,874 views 1 this week
no commentswrite comment
1 2 3 4 5
1 last vote to show rating
add to favorites
launch autoscroll
font size
0
reset
how to read this tab
guitar tuner
Autoscroll
slow
fast
+/-
esc
set tempo
stop
Help us to improve Ultimate-Guitar.com Take our survey!
×
Author
Difficulty
Tuning
novice
D A D G B E
Song: Bad Romance
Band: A Smile From The Trenches
Tabber: IanSaysRawr
Tuning: Drop D

This version is in Drop D. They actually play in Drop C. My band stays in
standard and drop D for convenience, so I tabbed it out for that. To play it
the way it's "supposed" to be played, just move all the frets up 2 whilst
tuned to Drop C. The bridge, however, is already tabbed as if it were in Drop
C. Comments? Suggestions? Feel free to comment here or send me a message.



intro/main riff
|--------------------------------------------|
|--------------------------------------------|
|-----99109-------99109------99109---555555--|
|-7-7-99109---77--99109--7-7-99109---555555--| (x2)
|-7-7-778-7---77--778-7--7-7-778-7---330303--|
|-7-7---------77---------7-7-----------------|

verse
|-------------------|
|-------------------|
|-------------------|
|--7-7-7-7-5-5-3-3--| (x7)
|--7-7-7-7-7-7-3-3--| 
|--7-7-7-7-5-5-3-3--|
|
|----------------------------------------------------------------------|
|-----------------------------8---8------------------------------------|
|-779-779-779-779-7710-7710-77--77---779-779-779-779-7710-7710-777-777-|
|----------------------------------------------------------------------| x2
|----------------------------------------------------------------------|
|----------------------------------------------------------------------|
  ..  ..  ..  ..  ..   ..   ..  ..   ..  ..  ..  ..  ..   ..   ..  ..

pre-chorus (rest x1)
|--10~~~-|
|--------|
|--------|
|--------|
|--------|
|--------|

chorus
|--------------------------------------|
|--------------------------------------|
|--------------------------------------|
|-33333333-55555555-22222222--777--555-| (x4)
|-33333333-55555555-22222222--777--777-|
|-33333333-55555555-22222222--777--555-|
|
|-131313-131313-131313-131313-151515-151515-151515-151515--|
|----------------------------------------------------------|
|----------------------------------------------------------|
|----------------------------------------------------------|
|----------------------------------------------------------|
|----------------------------------------------------------|
  . .    . .    . .    . .    . .    . .    . .    . .
--121212-121212-121212-121212-171717-171717-151515-151515-|
----------------------------------------------------------|
----------------------------------------------------------|
----------------------------------------------------------| x2
----------------------------------------------------------|
----------------------------------------------------------|
  . .    . .    . .    . .    . .    . .    . .    . .
main riff x1

verse x7

pre-chorus (rest x1)

chorus x4

main riff x1


pre-bridge
|----------|
|----------|
|----------|
|-77777777-| (x4)
|-77777777-| 
|-77777777-|
  ........

bridge
|---------------------------------------------------|
|---------------------------------------------------|
|---------------------------------------------------|
|---------------------------------------------------| (x4)
|-0-0-000-0-0-000-0-1/10--0-0-000-0-0-000-0-1/10----|
|-0-0-000-0-0-000-0-1/10--0-0-000-0-0-000-0-1/10----|
| . . ... . . ... .       . . ... . . ... .
|
|--------------------------------------------------|
|--------------------------------------------------|
|--------------------------------------------------|
|-------------------------------------------5*~----| (x4)
|-0-0-000-0-0-000-0-1/10--0-0-000-0-0-000-0--------|
|-0-0-000-0-0-000-0-1/10--0-0-000-0-0-000-0--------|
  . . ... . . ... .       . . ... . . ... .

post-bridge (rest x16)

chorus x4

outro
|-------------------|
|-------------------|
|-------------------|
|--7-7-7-7-0-0-3-3--| x1
|--7-7-7-7-0-0-3-3--|
|--7-7-7-7-0-0-3-3--|
Suggest correction
Give kudos to tab author, rate the tab!
1 2 3 4 5
comments
print report bad tab
guest
You may want to rate the tab now too:
select rating
Wanna post a correction for this tab? Suggest correction