Oops, an error
Loading. Please wait.

Neurobeat Bass Tab

version 1
version 1

Whole song

  • Neurobeat by A split second. (80's Industrial artist).

Interactive

7 views 1 this week
no commentswrite comment
1 2 3 4 5
3 more votes to show rating
add to favorites
launch autoscroll
font size
0
reset
guitar tuner
Autoscroll
slow
fast
+/-
esc
set tempo
stop
Help us to improve Ultimate-Guitar.com Take our survey!
×
Author
Difficulty
intermediate
About this tab version
Neurobeat by A split second. (80's Industrial artist). Was this info helpful? Yes No
[Intro]
G|-----------------|-----------------|-----------------|-----------------|
D|-----------------|-----------------|-----------------|-----------------|
A|-----------------|-----------------|-----------------|-----------------|
E|-----------------|-----------------|-----------------|-----------------|

G|-----------------|-----------------|-----------------|-------0---5-4-5-|
D|-----------------|-------3---3-----|-----------------|-----------------|
A|-0---2-3-0---2-3-|-0-2-3-----------|-0---2-3-0---2-3-|-3-3-------------|
E|-----------------|-----------------|-----------------|-----------------|

G|-----------------|-----------------|-----------------|-------0---5-4-5-|
D|-----------------|-------3---3-----|-----------------|-----------------|
A|-0---2-3-0---2-3-|-0-2-3-----------|-0---2-3-0---2-3-|-3-3-------------|
E|-----------------|-----------------|-----------------|-----------------|


G|-----------------|-----------------|-----------------|-----------------|
D|-----------------|-----------------|-----------------|-----------------|
A|-0-0-3-0-0-5-0-0-|-6-0-0-5-0-0-3---|-0-0-3-0-0-5-0-0-|-6-0-0-8-----8---|
E|-----------------|-----------------|-----------------|-----------------|

G|-----------------|-----------------|-----------------|-----------------|
D|-----------------|-----------------|-----------------|-----------------|
A|-0-0-3-0-0-5-0-0-|-6-0-0-5-0-0-3---|-0-0-3-0-0-5-0-0-|-6-0-0-8-----8---|
E|-----------------|-----------------|-----------------|-----------------|

G|-----------------|-----------------|-----------------|-----------------|
D|-0-0-3-0-0-5-0-0-|-7-0-0-8-0-0-7---|-0-0-3-0-0-5-0-0-|-8-0-0-7-0-0-8-7-|
A|-----------------|-----------------|-----------------|-----------------|
E|-----------------|-----------------|-----------------|-----------------|


G|-----------------|-----------------|-----------------|-----------------|
D|-----------------|-----------------|-----------------|-----------------|
A|-0-0-3-0-0-5-0-0-|-6-0-0-5-0-0-3---|-0-0-3-0-0-5-0-0-|-6-0-0-8-----8---|
E|-----------------|-----------------|-----------------|-----------------|

G|-----------------|-----------------|-----------------|-----------------|
D|-----------------|-----------------|-----------------|-----------------|
A|-0-0-3-0-0-5-0-0-|-6-0-0-5-0-0-3---|-0-0-3-0-0-5-0-0-|-6-0-0-8-----8---|
E|-----------------|-----------------|-----------------|-----------------|

G|-----------------|-----------------|-----------------|-----------------|
D|-0-0-3-0-0-5-0-0-|-7-0-0-8-0-0-7---|-0-0-3-0-0-5-0-0-|-8-0-0-7-0-0-8-7-|
A|-----------------|-----------------|-----------------|-----------------|
E|-----------------|-----------------|-----------------|-----------------|

[Verse]
G|-----------------|-----------------|-----------------|-----------------|
D|-----------------|-----------------|-----------------|-----------------|
A|-0-----0-0-0---0-|-0-0---0-0-0-0-0-|-0-0---0-0-0---0-|-0-0---0-0-0-0-0-|
E|-----------------|-----------------|-----------------|-----------------|

G|-----------------|-----------------|-----------------|-----------------|
D|-----------------|-----------------|-----------------|-----------------|
A|-0-----0-0-0---0-|-0-0---0-0-0-0-0-|-0-0---0-0-0---0-|-0-0---0-0-0-0-0-|
E|-----------------|-----------------|-----------------|-----------------|

G|-----------------|-----------------|-----------------|-----------------|
D|-----------------|-----------------|-----------------|-----------------|
A|-0-----0-0-0---0-|-0-0---0-0-0-0-0-|-0-0---0-0-0---0-|-0-0---0-0-0-0-0-|
E|-----------------|-----------------|-----------------|-----------------|

G|-----------------|-----------------|-----------------|-----------------|
D|-----------------|-----------------|-----------------|-----------------|
A|-0-----0-0-0---0-|-0-0---0-0-0-0-0-|-0-0---0-0-0---0-|-0-0---0-0-0-0-0-|
E|-----------------|-----------------|-----------------|-----------------|

[Chorus]
G|-----------------|-----------------|-----------------|-----------------|
D|-----------------|-----------------|-----------------|-----------------|
A|-0-0-3-0-0-5-0-0-|-6-0-0-5-0-0-3---|-0-0-3-0-0-5-0-0-|-6-0-0-8-----8---|
E|-----------------|-----------------|-----------------|-----------------|

G|-----------------|-----------------|-----------------|-----------------|
D|-----------------|-----------------|-----------------|-----------------|
A|-0-0-3-0-0-5-0-0-|-6-0-0-5-0-0-3---|-0-0-3-0-0-5-0-0-|-6-0-0-8-----8---|
E|-----------------|-----------------|-----------------|-----------------|

G|-----------------|-----------------|-----------------|-----------------|
D|-0-0-3-0-0-5-0-0-|-7-0-0-8-0-0-7---|-0-0-3-0-0-5-0-0-|-8-0-0-7-0-0-8-7-|
A|-----------------|-----------------|-----------------|-----------------|
E|-----------------|-----------------|-----------------|-----------------|


G|-----------------|-----------------|-----------------|-----------------|
D|-----------------|-----------------|-----------------|-----------------|
A|-0-0-3-0-0-5-0-0-|-6-0-0-5-0-0-3---|-0-0-3-0-0-5-0-0-|-6-0-0-8-----8---|
E|-----------------|-----------------|-----------------|-----------------|

G|-----------------|-----------------|-----------------|-----------------|
D|-----------------|-----------------|-----------------|-----------------|
A|-0-0-3-0-0-5-0-0-|-6-0-0-5-0-0-3---|-0-0-3-0-0-5-0-0-|-6-0-0-8-----8---|
E|-----------------|-----------------|-----------------|-----------------|

G|-----------------|-----------------|-----------------|-----------------|
D|-0-0-3-0-0-5-0-0-|-7-0-0-8-0-0-7---|-0-0-3-0-0-5-0-0-|-8-0-0-7-0-0-8-7-|
A|-----------------|-----------------|-----------------|-----------------|
E|-----------------|-----------------|-----------------|-----------------|

[Verse]
G|-----------------|-----------------|-----------------|-----------------|
D|-----------------|-----------------|-----------------|-----------------|
A|-0-----0-0-0---0-|-0-0---0-0-0-0-0-|-0-0---0-0-0---0-|-0-0---0-0-0-0-0-|
E|-----------------|-----------------|-----------------|-----------------|

G|-----------------|-----------------|-----------------|-----------------|
D|-----------------|-----------------|-----------------|-----------------|
A|-0-----0-0-0---0-|-0-0---0-0-0-0-0-|-0-0---0-0-0---0-|-0-0---0-0-0-0-0-|
E|-----------------|-----------------|-----------------|-----------------|

G|-----------------|-----------------|-----------------|-----------------|
D|-----------------|-----------------|-----------------|-----------------|
A|-0-----0-0-0---0-|-0-0---0-0-0-0-0-|-0-0---0-0-0---0-|-0-0---0-0-0-0-0-|
E|-----------------|-----------------|-----------------|-----------------|

G|-----------------|-----------------|-----------------|-----------------|
D|-----------------|-----------------|-----------------|-----------------|
A|-0-----0-0-0---0-|-0-0---0-0-0-0-0-|-0-0---0-0-0---0-|-0-0---0-0-0-0-0-|
E|-----------------|-----------------|-----------------|-----------------|

G|-----------------|-----------------|-----------------|-----------------|
D|-----------------|-----------------|-----------------|-----------------|
A|-0-----0-0-0---0-|-0-0---0-0-0-0-0-|-0-0---0-0-0---0-|-0-0---0-0-0-0-0-|
E|-----------------|-----------------|-----------------|-----------------|

[Chorus]
G|-----------------|-----------------|-----------------|-----------------|
D|-----------------|-----------------|-----------------|-----------------|
A|-0-0-3-0-0-5-0-0-|-6-0-0-5-0-0-3---|-0-0-3-0-0-5-0-0-|-6-0-0-8-----8---|
E|-----------------|-----------------|-----------------|-----------------|

G|-----------------|-----------------|-----------------|-----------------|
D|-----------------|-----------------|-----------------|-----------------|
A|-0-0-3-0-0-5-0-0-|-6-0-0-5-0-0-3---|-0-0-3-0-0-5-0-0-|-6-0-0-8-----8---|
E|-----------------|-----------------|-----------------|-----------------|

G|-----------------|-----------------|-----------------|-----------------|
D|-0-0-3-0-0-5-0-0-|-7-0-0-8-0-0-7---|-0-0-3-0-0-5-0-0-|-8-0-0-7-0-0-8-7-|
A|-----------------|-----------------|-----------------|-----------------|
E|-----------------|-----------------|-----------------|-----------------|


G|-----------------|-----------------|-----------------|-----------------|
D|-----------------|-----------------|-----------------|-----------------|
A|-0-0-3-0-0-5-0-0-|-6-0-0-5-0-0-3---|-0-0-3-0-0-5-0-0-|-6-0-0-8-----8---|
E|-----------------|-----------------|-----------------|-----------------|

G|-----------------|-----------------|-----------------|-----------------|
D|-----------------|-----------------|-----------------|-----------------|
A|-0-0-3-0-0-5-0-0-|-6-0-0-5-0-0-3---|-0-0-3-0-0-5-0-0-|-6-0-0-8-----8---|
E|-----------------|-----------------|-----------------|-----------------|

G|-----------------|-----------------|-----------------|-----------------|
D|-0-0-3-0-0-5-0-0-|-7-0-0-8-0-0-7---|-0-0-3-0-0-5-0-0-|-8-0-0-7-0-0-8-7-|
A|-----------------|-----------------|-----------------|-----------------|
E|-----------------|-----------------|-----------------|-----------------|

[Verse]
G|-----------------|-----------------|-----------------|-----------------|
D|-----------------|-----------------|-----------------|-----------------|
A|-0-----0-0-0---0-|-0-0---0-0-0-0-0-|-0-0---0-0-0---0-|-0-0---0-0-0-0-0-|
E|-----------------|-----------------|-----------------|-----------------|

G|-----------------|-----------------|-----------------|-----------------|
D|-----------------|-----------------|-----------------|-----------------|
A|-0-----0-0-0---0-|-0-0---0-0-0-0-0-|-0-0---0-0-0---0-|-0-0---0-0-0-0-0-|
E|-----------------|-----------------|-----------------|-----------------|

G|-----------------|-----------------|-----------------|-----------------|
D|-----------------|-----------------|-----------------|-----------------|
A|-0-----0-0-0---0-|-0-0---0-0-0-0-0-|-0-0---0-0-0---0-|-0-0---0-0-0-0-0-|
E|-----------------|-----------------|-----------------|-----------------|

G|-----------------|-----------------|
D|-----------------|-----------------|
A|-0-----0-0-0---0-|-0-0---0-0-0-0-0-|
E|-----------------|-----------------|

[Guitar Solo]
G|-----------------|-----------------|-----------------|-----------------|
D|-----------------|-----------------|-----------------|-----------------|
A|-0-0-3-0-0-5-0-0-|-6-0-0-5-0-0-3---|-0-0-3-0-0-5-0-0-|-6-0-0-8-----8---|
E|-----------------|-----------------|-----------------|-----------------|

G|-----------------|-----------------|-----------------|-----------------|
D|-----------------|-----------------|-----------------|-----------------|
A|-0-0-3-0-0-5-0-0-|-6-0-0-5-0-0-3---|-0-0-3-0-0-5-0-0-|-6-0-0-8-----8---|
E|-----------------|-----------------|-----------------|-----------------|

G|-----------------|-----------------|-----------------|-----------------|
D|-0-0-3-0-0-5-0-0-|-7-0-0-8-0-0-7---|-0-0-3-0-0-5-0-0-|-8-0-0-7-0-0-8-7-|
A|-----------------|-----------------|-----------------|-----------------|
E|-----------------|-----------------|-----------------|-----------------|


G|-----------------|-----------------|-----------------|-----------------|
D|-----------------|-----------------|-----------------|-----------------|
A|-0-0-3-0-0-5-0-0-|-6-0-0-5-0-0-3---|-0-0-3-0-0-5-0-0-|-6-0-0-8-----8---|
E|-----------------|-----------------|-----------------|-----------------|

G|-----------------|-----------------|-----------------|-----------------|
D|-----------------|-----------------|-----------------|-----------------|
A|-0-0-3-0-0-5-0-0-|-6-0-0-5-0-0-3---|-0-0-3-0-0-5-0-0-|-6-0-0-8-----8---|
E|-----------------|-----------------|-----------------|-----------------|

G|-----------------|-----------------|-----------------|-----------------|
D|-0-0-3-0-0-5-0-0-|-7-0-0-8-0-0-7---|-0-0-3-0-0-5-0-0-|-8-0-0-7-0-0-8-7-|
A|-----------------|-----------------|-----------------|-----------------|
E|-----------------|-----------------|-----------------|-----------------|

[Outro]
G|-----------------|-----------------|-----------------|-----------------|
D|-----------------|-------0---1-----|-----------------|-------0---1-2---|
A|-0---0-0-0---0-0-|-3---------------|-0---0-0-0---0-0-|-3---------------|
E|-----------------|-----------------|-----------------|-----------------|

G|-----------------|-----------------|-----------------|-----------------|
D|-----------------|-------0---1-----|-----------------|-------0---1-2---|
A|-0---0-0-0---0-0-|-3---------------|-0---0-0-0---0-0-|-3---------------|
E|-----------------|-----------------|-----------------|-----------------|

G|-----------------|-----------------|-----------------|-----------------|
D|-----------------|-----------------|-----------------|-----------------|
A|-0---------------|-----------------|-----------------|-----------------|
E|-----------------|-----------------|-----------------|-----------------|
Suggest correction
Give kudos to tab author, rate the tab!
1 2 3 4 5
comments
print report bad tab
guest
You may want to rate the tab now too:
select rating
Wanna post a correction for this tab? Suggest correction