Oops, an error
Loading. Please wait.

A Sip Of Wine Chased With Cyanide Bass Tab

version 1
version 1

Whole song

Interactive

447 views 1 this week
no commentswrite comment
1 2 3 4 5
3 more votes to show rating
add to favorites
launch autoscroll
font size
0
reset
guitar tuner
Autoscroll
slow
fast
+/-
esc
set tempo
stop
Help us to improve Ultimate-Guitar.com Take our survey!
×
Author
Difficulty
Tuning
intermediate
D A D G B E
A Static Lullaby-"A Sip Of Wine Chased With Cyanide"
...And Don't Forget To Breathe
Drop-D Tuning (DADG)
| /  slide up
| \  slide down
| h  hammer-on
| p  pull-off
| ~  vibrato
| +  harmonic
| x  Mute note

Verse
G-----------------------------------------------|
D-222--000---------------222--000---------------|
A-----------000-2333---------------000-2333-----|
D--------------------555--------------------555-|

{0:11}
G-----------------------------------------------|
D-2222200000-------------222--000---------------|
A-----------000-2333---------------000-2333-----|
D--------------------555--------------------555-|

{0:22}
G---------------------------------------------------22222222-|
D-2-22222-0-00000----------------00-2-22222-4444444----------|
A-----------------3-33333-2-22-33----------------------------|
D------------------------------------------------------------|

{0:33}
G------------------------------------------------------222222222-|
D-2222222-0000020-------------------00-2222222-4444444-----------|
A----------------23333333-222222-33------------------------------|
D----------------------------------------------------------------|

{0:44} (x4) 2nd Part of Verse
G--------------------------------|
D-2-22222-0-00000----------------|
A-----------------3-33333-2-2222-|
D--------------------------------|

{1:06} (x2) Chorus
G---------------------------------------------|
D---------------------------------------------|
A---------------------------------------------|
D-0000-00--2222-22--3333-33--023035087057035~-|

{1:28} Post-Chorus
G------------------------------------------------------------------|
D------------------------------------------------------------------|
A------------------------------------------------------------------|
D-2224445554445544-2224445554445544-2224445554445544-2224445554445-|

{1:40} Verse
G-----------------------------------------------|
D-222--000---------------222--000---------------|
A-----------000-2333---------------000-2333-----|
D--------------------555--------------------555-|

{1:51}
G------------02---------------------------------------|
D-22222200002---------------222--000-1/7--------------|
A--------------000-2333------------------000-2333-----|
D-----------------------555-----------------------555-|

{2:02}
G-------------------------------------------------------222222222-|
D-22222222-00000000-----------------0-22222222-44444444-----------|
A-------------------33333333-2222222------------------------------|
D-----------------------------------------------------------------|

{2:13}
G------------------------------------------------------------------|
D-2222222-0000020-----55------44---2222222-0000000-----------------|
A----------------23333--332222--22-----------------3333333-2222222-|
D------------------------------------------------------------------|

{2:24} (x2) Chorus
G---------------------------------------------|
D---------------------------------------------|
A---------------------------------------------|
D-0000-00--2222-22--3333-33--023035087057035~-|

{2:46}  After-Chorus (x8)
G---------|----------------|
D---------|----------------|
A---------|----------------|
D-0~~~~~~~|5553332223335533

{3:14}
G-----------------------|
D-----------------------|
A-----------------------|
D-0-----------8/12-8/12-|

{3:17} Breakdown
G-----------------------------------------------------------------------------|
D-----------------------------------------------------------------------------|
A-----------------------------------------------------------------------------|
D-023035087057035~023035087057035~023035087057035~023035087057035~5~5555555555

{3:29}
G-----------------------------------------------------------------7------------|
D------------------------------------------------------------------------------|
A-000000000-33333333-55555555-55555555-000000000-33333---3---55555-55-55555555-|
D-----------------------------------------------------023-023------------------|

{3:50}
G---------------------------------------------------------------------------|
D---------------------------------------------------------------------------|
A-000000000-33333333-55555555-55555555-000000000-33333333-55555555-55555555-|
D---------------------------------------------------------------------------|

{4:12}
G--------------------------------------------------------|
D--------------------------------------------------------|
A-0-00-000-22-22222-2222222-5555-5555-55-5555-555---320--|
D------------------------------------------------023---5-|

{4:23} (x2)
G--------------------------------------------------|
D--------------------------------------------------|
A-000000000-333333333------------------------------|
D---------------------0000-0000-00000000-0000-0000-|

{4:45}
G--------------------------------------------------------------|
D---------------------------------------------------------5--7-|
A-000000000-333333333-------------5555------------5757-0-------|
D---------------------024024024024----024024024024-------------|

Enjoy.
Suggest correction
Give kudos to tab author, rate the tab!
1 2 3 4 5
comments
print report bad tab
guest
You may want to rate the tab now too:
select rating
Wanna post a correction for this tab? Suggest correction