Oops, an error
Loading. Please wait.

A Sip Of Wine Chased With Cyanide Tab

version 1
version 1

Solo

Whole song

Interactive

1,636 views 1 this week
1 commentread comment
1 2 3 4 5
excellent!
x 3
add to favorites
launch autoscroll
font size
0
reset
how to read this tab
guitar tuner
Autoscroll
slow
fast
+/-
esc
set tempo
stop
Help us to improve Ultimate-Guitar.com Take our survey!
×
Tuning: Dropped D (eBGDAD) high to low

Key:
/=slide
h=hammer
p=pull
v=vibrato
*=harmonic
(#)=pinch harmonic
b=bend
[#]=tremolo picking

e|-----------------------------------------------------------|
B|---------------------------7h8p7---7h8h7---7h8p7---7h8p7---|
G|9b11-7-----------7h8-7h9-7-------9-------9-------9-------9-|
D|-------9-----7h9-------------------------------------------|
A|---------7h9-----------------------------------------------|
D|-----------------------------------------------------------|

e|10-----10-----10-----10-----10-----------------------------|
B|---8-7----8-7----8-7----8-7----8-7-------------------------|
G|-----------------------------------(9)-9-(9)-7-----------7-|
D|-----------------------------------------------7-----7h9---|
A|-------------------------------------------------7h9-------|
D|-----------------------------------------------------------|

e|10h12h10---------------------------------------[15-14-12]10h12-12b13-12-12-12-10h12p10|
B|--------10h12h10-x8-------------------------------------------------------------------|              
G|---------------------11h12-11----11h12-11---------------------------------------------|
D|------------------------------12----------12\2----------------------------------------|
A|--------------------------------------------------------------------------------------|
D|--------------------------------------------------------------------------------------|

Suggest correction
Give kudos to tab author, rate the tab!
1 2 3 4 5
comments
print report bad tab
1 comment total.
0 reply
screamo_core 435 wrote on May 9 2010, 01:16 pm

excelent!!

guest
You may want to rate the tab now too:
select rating
Wanna post a correction for this tab? Suggest correction