Oops, an error
Loading. Please wait.

Annunciate While You Masticate Bass Tab

version 1
version 1

Whole song

Interactive

191 views 1 this week
no commentswrite comment
1 2 3 4 5
3 more votes to show rating
add to favorites
launch autoscroll
font size
0
reset
guitar tuner
Autoscroll
slow
fast
+/-
esc
set tempo
stop
Help us to improve Ultimate-Guitar.com Take our survey!
×
Author
Difficulty
Tuning
novice
D A D G B E
A Static Lullaby-Annunciate While You Masticate
...And Don't Forget To Breathe
Drop-D Tuning
| /  slide up
| \  slide down
| h  hammer-on
| p  pull-off
| ~  vibrato
| +  harmonic
| x  Mute note
Intro: "Move into the grave that bears your name"
G--------------------|
D--------------------|
A--------------------| (x4)
D-888-000-7777777777-|

Verse: {0:11} "My high is creeping..."
G--------------------|
D--------------------|
A-----------------8~-| (x4)
D-888-000-77777777---|

{0:22} Intro (x4) "So we'll see right through"

Chorus: {0:32} "All in the taste of salt on your neck"
G-------------------------------------------------------|
D-------------------------------------------------------|
A-------------------------------------------------5~~5~-|
D-33-33-55-55-55-0~~~~~~0~~~~~~33-33-55-55-55-0~~~------|

G-----------------------------------------------|
D-----------------------------------------------|
A-----------------------------------------------|
D-33-33-55-55-55-0~~~~~~0~~~~~~33-33-55-55-5000-|

{0:50} Intro (x4)

{1:00} Verse (x4)

{1:10} Intro (x4)

Slide Into 2nd Chorus: D-7/153

2nd Chorus {1:21}
G-------------------------------------------------------|
D-------------------------------------------------------|
A-------------------------------------------------5~~5~-|
D-33-33-55-55-55-0~~~~~~0~~~~~~33-33-55-55-55-0~~~------|

G---------------------------------------------|
D---------------------------------------------|
A---------------------------------------------|
D-33-33-55-55-55-0~~~~~~0~~~~~~33-33-55-55-55-|

Breakdown: {1:38} "We won't believe in anything"
G--------------------------      |-----|
D--------------------------      |-----|
A------8~7~---------------- (x4) |-----|
D-00000----7777777777777777      |-7---|
Suggest correction
Give kudos to tab author, rate the tab!
1 2 3 4 5
comments
print report bad tab
guest
You may want to rate the tab now too:
select rating
Wanna post a correction for this tab? Suggest correction