Oops, an error
Loading. Please wait.

Charred Fields Of Snow Bass Tab

version 1
version 1

Whole song

Interactive

283 views 1 this week
no commentswrite comment
1 2 3 4 5
please rate
add to favorites
launch autoscroll
font size
0
reset
guitar tuner
Tab Pro tools
  • play this tab
  • loop segment
  • change instrument
  • show fretboard
  • metronome
×
Best way to learn
"Charred Fields Of Snow"
Autoscroll
slow
fast
+/-
esc
set tempo
stop
Contributor
Difficulty
Tuning
novice
D A D G B E
A Static Lullaby-Charred Fields Of Snow
...And Don't Forget To Breathe
Drop-D Tuning
| /  slide up
| \  slide down
| h  hammer-on
| p  pull-off
| ~  vibrato
| +  harmonic
| x  Mute note
Intro: {0:05}
G----------------|
D----------------|
A-7~~7~~7~~7~~2- (Bend these notes)
D----------------

Riff 1: {0:07}
G-------------------------------------------|
D-------------------------------------------|
A-------------------------------------------| (x2)
D-2~~~~/12-0~~2~~~~/12-0~~55555555-77777777-|

Riff 2: {0:23}
G-------------------------------------|
D-------------------------------------|
A-33333333-55555555-77777777-55555555-| (x2)
D-------------------------------------|

Verse: {0:38}
G-------------------------------------|
D----555------444------555------777---|
A-333---33-555---55-777---77-555---50-| (x3)
D-------------------------------------|

G-------------------------|
D----555------444---------|
A-333---33-555---55-77777-|
D-------------------------|

Riff 3: {1:07}
G---------------------------------------      G--------------------|
D---------------------------------------      D--------------------|
A--------------------------------------- (x2) A--------------------|
D-2-2-55-0~~2-2-55-4~~2-2-55-0~~44-55-7-      D-2~~~~~2~~~~~/117---|

Riff 4: {1:30}
G-------------------------------|
D-------------------------------|
A-7777777777777-55555-333333333-| (x6)
D-------------------------------|

Riff 5: {1:52}
G-----------------------------|
D-----------------------------|
A-333333-222222---------------| (x4)
D---------------222222-000000-|

Riff 6: {2:22}
G--------------------------------|
D--------------------------------|
A--------------------------------| (x4)
D-22------22--22--22------22--00-|

{2:37} Riff 4 (x4)

{2:55}
G----|-------------------------------------------------------|
D----|-------------------------------------------------------|
A----|-------------------------------------------------------|
D-22-|-5~~~~~7~~~~~2~~~~/12-0~~2~~~~/12-0~~55555555-77777777-|

{3:07} Riff 1

{3:15} Riff 2 (x2)

Verse w/ Variation: {3:30}
G-------------------------------------|-------------------------------777---|
D----555------444------555------777---|----555------444------555---555---50-|
A-333---33-555---55-777---77-555---50-|-333---33-555---55-777---77----------|
D-------------------------------------|-------------------------------------|

G-------------------------------------|------------------------------------------|
D----555------444------555------777---|----555------444------555-----------------|
A-333---33-555---55-777---77-555---50-|-333---33-555---55-777---77777777-55-55-5-|
D-------------------------------------|------------------------------------------|

{4:00} Riff 5 (x3)

Ending {4:22}
G-----------------------------------------------|
D---------------------------------------5-5-----|
A-333333-222222-7777--5~~~7777--5~~~--77-7-75~~-|
D-----------------------------------------------|
comments
We did not receive enough feedback on this tab! Please rate:
print report bad tab
1 2 3 4 5
I want to post or [tab]
guest
You may want to rate the tab now too:
select rating
Please do not post tabs as comments. Select "correction" instead!