Oops, an error
Loading. Please wait.

The Pledge Bass Tab

343 views 1 this week
no commentswrite comment
1 2 3 4 5
please rate
add to favorites
launch autoscroll
font size
0
reset
guitar tuner
Autoscroll
slow
fast
+/-
esc
set tempo
stop
Help us to improve Ultimate-Guitar.com Take our survey!
×
Author
Difficulty
Tuning
intermediate
D A D G B E
Artist  :A Static Lullaby
Album   :Rattlesnake!
Track   :The Pledge
Tunning :Drop D

(D minor)

Its about 95% right. I hope.

-Intro 1-
G|-----------------------------------|
D|-----------------------------------|
A|-----------------------------------|
D|-00-0-00-0-00-0-0-00-0-00-0-00-0-0-|

-Verse 1-
G|-----------------------------------|
D|-----------------------------------|
A|-----8~5~----8~5~-----8~5----------|
D|-0350-----035----0~350---0350-5~3~-|

G|-----------------------------------|
D|-----------------------------------|
A|-----8~5~----8~5~-----8~5----------|
D|-0350-----035----0~350---0350-5~3~-|

G|-----------------------------------|
D|-----------------------------------|
A|-----8~5~----8~5~-----8~5----------|
D|-0350-----035----0~350---0350-5~3~-|

G|-----------------------------------|
D|-----------------------------------|
A|-----8~5~----8~5~-----8~5----------|
D|-0350-----035----0~350---0350-5~3\-|

-Pre Chorus 1-
G|--------------------------------------|
D|--------------------------------------|
A|--------------------------------------|
D|-00-0-00-0-00-0-00-0-0-00-0-00000--3~-|

G|-------------------------------------|
D|-------------------------------------|
A|-------------------------------------|
D|-00-0-00-0-00-0-00-0-53335333-108108-|
                          
-Chorus 1-
G|------------------------------------|
D|------------------------------------|
A|-5555---1~1111111-----333---3333333-|
D|------3-----------3333---333--------|

G|----------------------------------|
D|----------------------------------|
A|-5555---1~1111111---------------3-|
D|------3-----------333222-2532532--|

G|------------------------------------|
D|------------------------------------|
A|-5555---1~1111111-----333---3333333-|
D|------3-----------3333---333--------|

G|--------------------------|
D|--------------------------|
A|-5555---1~1111111---------|
D|------3-----------3~2~0~~-|

-Verse 2-
G|-----------------------------------|
D|-----------------------------------|
A|-----8~5~----8~5~-----8~5----------|
D|-0350-----035----0~350---0350-5~3~-|

G|----------------------------------|
D|----------------------------------|
A|-----8~5~----8~5~-----8~5---------|
D|-0350-----035----0~350---0350-3~~-|

G|----------------------------------|
D|-----------------------------5777-|
A|-----8~5~----8~5~-----8~5---------|
D|-0350-----035----0~350---3555-----|

G|-----------------------------------|
D|-----------------------8108--------|
A|-----8~5~----8~5/810878------------|
D|-0350-----035---------------108108-|
                        
-Chorus 2-
G|------------------------------------|
D|------------------------------------|
A|-5555---1~1111111-----333---3333333-|
D|------3-----------3333---333--------|

G|----------------------------------|
D|----------------------------------|
A|-5555---1~1111111---------------3-|
D|------3-----------333222-2532532--|

G|------------------------------------|
D|------------------------------------|
A|-5555---1~1111111-----333---3333333-|
D|------3-----------3333---333--------|

G|----------------------------------|
D|----------------------------------|
A|-5555---1~1111111---------------3-|
D|------3-----------333222-2532532--|

-Break 1-
G|----------------------------|-----------|
D|----------------------------|--1/5--3-3-|
A|----------------------------|-----60-5--|
D|-0~000000~000000~000000/12\-|-----------|

-Bridge 1-
G|----------------------------------|
D|-------------------------5~--3----|
A|------3-------3-------3----60-53--|
D|-0~035-530~035-530~035-53---------|

G|----------------------------------|
D|-------------------------5~--3----|
A|------3-------3-------3----60-53--|
D|-0~035-530~035-530~035-53---------|

-Break 2-
G|-------------------------|
D|-------------------------|
A|-------------------------|
D|-0--000--000-0/10~\-03~~-|

G|----------------------------------------|
D|----------------------------------------|
A|-----3--------3--------3----------------|
D|-0235-532-0235-532-0235-532-0/10~\-03~~-|

G|-------------------------|
D|-------------------------|
A|-------------------------|
D|-0--000--000-0/10~\-03~~-|

G|----------------------------------------|
D|----------------------------------------|
A|-----3--------3--------3----------------|
D|-0235-532-0235-532-0235-532-0/10~\-03~~-|

G|-------------------------------|
D|-------------------------------|
A|-----3--------3--------3----3~-|
D|-0235-532-0235-532-0235-532----|

G|-----------------------------------|
D|-----------------------------------|
A|-----------------------------------|
D|-00-0-00-0-00-0-0-00-0-00-0-00-0-0-|

-Chorus 3-
G|------------------------------------|
D|------------------------------------|
A|-5555---1~1111111-----333---3333333-|
D|------3-----------3333---333--------|

G|----------------------------------|
D|----------------------------------|
A|-5555---1~1111111---------------3-|
D|------3-----------333222-2532532--|

G|------------------------------------|
D|------------------------------------|
A|-5555---1~1111111-----333---3333333-|
D|------3-----------3333---333--------|

G|----------------------------------|
D|----------------------------------|
A|-5555---1~1111111---------------3-|
D|------3-----------333222-2532532--|

-Outro 1-
G|--------------------------------|
D|--------------------------------|
A|-5~--1~~----3~~-5~--1~~---------|
D|---3~---3~3~------3~---3~2~0~~~-|


Enjoy.
Suggest correction
Give kudos to tab author, rate the tab!
1 2 3 4 5
comments
print report bad tab
guest
You may want to rate the tab now too:
select rating
Wanna post a correction for this tab? Suggest correction