Oops, an error
Loading. Please wait.

The Pledge Tab

829 views 1 this week
4 commentsread comments
1 2 3 4 5
please rate
add to favorites
launch autoscroll
font size
0
reset
how to read this tab
guitar tuner
Autoscroll
slow
fast
+/-
esc
set tempo
stop
Help us to improve Ultimate-Guitar.com Take our survey!
×
Author
The Pledge by A Static Lullaby
From "Rattlesnake!"

Some parts are missing i admit, so feel free to make adjustments, comments even if 
its loving it or hating it.

[Intro]
e|--------------------------------------------------------------|
B|--------------------------------------------------------------|
G|--------------------------------------------------------------|
D|--0-0-00-0-00-00000-------------------------------------------|
A|--0-0-00-0-00-00000-------------------------------------------|
D|--0-0-00-0-00-00000------------------3^-----------------------|

[verse 1]
e|--------------------------------------------------------------|
B|--------------------------------------------------------------|
G|--------------------------------------------------------------|
D|-----------3-0-------------3-0-----------------3-0------------|
A|--------------------------------------------------------------|
D|---0-3-5-0---------0-3-5-0-------------0-3-5-0----------------|
[verse 1 Continued]
e|---------------------------|
B|---------------------------|
G|---------------------------|
D|---------------------------|
A|---------------------------|
D|-----0-3-5-0-5-3-0---------|

[Bridge 2x] "Keep your women and children inside"
e|--------------------------------------------------------------|
B|--------------------------------------------------------------|
G|--------------------------------------------------------------|
D|--0-0-00-0-00-00000-------------------------------------------|
A|--0-0-00-0-00-00000-------------------------------------------|
D|--0-0-00-0-00-00000------------------3^-----------------------|

[Chorus Once]
e|------------------------------------------------------|
B|------------------------------------------------------|
G|--77777-----333333-----555-----55555------------------|
D|--77777--3--333333--3--555--3--55555------------------|
A|--55555--3--111111--3--333--3--33333------------------|
D|---------3----------3-------3-------------------------|
[Chorus Continued]
e|-------------------------------------------|
B|-------------------------------------------|
G|--77777--333333----------------------------|
D|--77777--333333--33333--3~--2~--0~---------|
A|--55555--111111--33333--3~--2~--0~---------|
D|-----------------33333--3~--2~--0~---------|

Verse 1 again,
Chorus 2x,
Bridge:
e|--------------------------------------------------------------|
B|--------------------------------------------------------------|
G|--------------------------------------------------------------|
D|------------------------------------------5-------4-----------|
A|---------3------------3------------3--------6-0-----5-0-------|
D|---0-3-5---5-3-0--3-5---5-3-0--3-5---5-3----------------------|

[Breakdown 3x]                "True passion a sadistic fiend"
e|-----------------------------|-------------------------|
B|-----------------------------|-------------------------|
G|-----------------------------|-------------------------|
D|--0~-000~--000~--0000~-------|--0000000000-------------|
A|--0~-000~--000~--0000~-------|--0000000000-------------|
D|--0~-000~--000~--0000~---3^--|--0000000000-------------|
                                  ..........
[Chorus 2x]

[Outro]
e|-----------------------|--------------------------------|
B|-----------------------|--------------------------------|
G|--7~-----3~----------5~|---7~--3~-----------------------|
D|--7~--3--3~----3-3---5~|---7~--3~-3~---3-2--0~----------|
A|--5~--3--1~----3-3---3~|---5~--1~-3~---3-2--0~----------|
D|------3--------3-3-----|----------3~---3-2--0~----------|

Suggest correction
Give kudos to tab author, rate the tab!
1 2 3 4 5
comments
print report bad tab
4 comments total. Showing first comments.
0 reply
wtflolbbq 334 wrote on August 7 2009, 08:56 pm

chorus is kinda off, verse looks pretty good, try to tab out correct rhythms for intro nd bridge and itll be pretty close to perfect

0 reply
wtflolbbq 334 wrote on August 7 2009, 08:58 pm

ah, breakdown plz ^^ theres definitely more than palm muted notes

0 reply
andrewjf 829 wrote on August 11 2009, 11:31 pm

yeah i only did the rythym guitar obviously

guest
You may want to rate the tab now too:
select rating
Wanna post a correction for this tab? Suggest correction