Oops, an error
Loading. Please wait.

The Shooting Star That Destroyed Us All Tab

version 4
version 4

Whole song

Interactive

217 views 1 this week
1 commentread comment
1 2 3 4 5
please rate
add to favorites
launch autoscroll
font size
0
reset
how to read this tab
guitar tuner
Autoscroll
slow
fast
+/-
esc
set tempo
stop
Help us to improve Ultimate-Guitar.com Take our survey!
×
Author
Difficulty
Tuning
intermediate
D A D G B E
whole song figured out now!enjoy!
-andrew visit my myspace www.myspace.com/andrewjf

Intro:guitar 1
e|-----------------------------------------------1-1-1-1-1-1-1-1-1-1--|
B|--------------------------------------------------------------------|
G|----5-5-5-5-5-5-5-5-5-5--2-2-2-2-2-2-2-2-2-2--2-2-2-2-2-2-2-2-2-2---|
D|---3-3-3-3-3-3-3-3-3-3--0-0-0-0-0-0-0-0-0-0-------------------------|
A|--------------------------------------------------------------------|
D|--------------------------------------------------------------------|
guitar 1 continued
e|----1-1-1-1-1-1-1-1-1-1-|
B|------------------------|
G|---3-3-3-3-3-3-3-3-3-3--|
D|------------------------|
A|------------------------|
D|------------------------|
Guitar 2 intro
e|-----------------------------|
B|-----------------------------|
G|-----------------------------|
D|--3-----------------333----0-|
A|--3-----------------333----0-|
D|--3-----------------333----0-|
Guitar 1 pre-chorus
e|---------------------------------------------------------------------------|
B|---------------------------------------------------------------------------|
G|---------------------------------------------------------------------------|
D|---333-333-333-333-333-333-333-333-333-333-333-333-333-333-333-333-333-333-|
A|---333-333-333-333-333-333-333-333-333-333-333-333-333-333-333-333-333-333-|
D|---333-333-333-333-333-333-333-333-333-333-333-333-333-333-333-333-333-333-|
     ..  ..  ..  ..  ..  ..  ..  ..  ..  ..  ..  ..  ..  ..  ..  ..  ..  ..
Guitar 2 pre-chorus[2x]
e|--------------------------------------------------------------------------|
B|--------------------------------------------------------------------------|
G|--------------------------------------------------------------------------|
D|--------------------------------------------------------------------------|
A|---333333333333--000000000000--777777777777-888888888888------------------|
D|---333333333333--000000000000--777777777777-888888888888------------------|
guitar 1 Chorus
e|--------------------------------------------------------------------|
B|--------------------------------------------------------------------|
G|-------------------------------222222222222--333333333333-----------|
D|---333333333333--000000000000--222222222222--333333333333-----------|
A|---333333333333--000000000000--000000000000--111111111111-----------|
D|---333333333333--000000000000---------------------------------------|
guitar 2 chorus
e|--------------------------------------------------------------------|
B|--------------------------------------------------------------------|
G|-------------------------------222222222222--888888888888-----------|
D|---333333333333--777777777777--222222222222--888888888888-----------|
A|---333333333333--555555555555--000000000000--888888888888-----------|
D|---333333333333--000000000000---------------------------------------|
bridge guitar 1[4X]
e|--------------------------------------------------------------------|
B|--------------------------------------------------------------------|
G|-----9---7----10/12----9---7---3------------------------------------|
D|-----X---X-----X--X----X---X---X------------------------------------|
A|-----7---5-----8-10----7---5---1------------------------------------|
D|--------------------------------------------------------------------|
bridge guitar 2
e|-----------------------------8888888888888888-----------------|
B|-----------------------------5555555555555555-----------------|
G|--------------------------------------------------------------|
D|-----0-------0-------0----------------------------------------|
A|-----0-------0-------0----------------------------------------|
D|-----0-------0-------0----------------------------------------|
guitar 1[2x]
e|-----------------------------------------------------------------------|
B|-----------------------------------------------------------------------|
G|---------------------------------121212-999-888-101010101010-----------|
D|-----121212-999-888-101010101010---------------------------------------|
A|-----------------------------------------------------------------------|
D|-----------------------------------------------------------------------|

[chorus]

bridge guitar 1
e|----------------------10-------10-|
B|------------------9-------------9-|
G|---------------7----------------7-|
D|----------------------------------|
A|----------------------------------|
D|----------------------------------|
Riff
both guitars.guitar 1 8x,guitar 2 5x
e|----------------------------------|
B|----------------------------------|
G|------7-----------5-----------7-7-|
D|------7--2--3--0--5--2--3--0--7-7-|
A|------5--2--3--0--3--2--3--0--5-5-|
D|---------2--3--0-----2--3--0------|
guitar 2 after 5th time
e|---------------131313131313131313131313131313131313131313-|
B|---------------131313131313131313131313131313131313131313-|
G|----------------------------------------------------------|
D|----------------------------------------------------------|
A|----------------------------------------------------------|
D|----------------------------------------------------------|
[your eyes,they shine,your eyes,]
guitar 1 [4x]
e|--------------------|
B|--------------------|
G|--------------------|
D|----0~---2~---3~----|
A|----0~---2~---3~----|
D|----0~---2~---3~----|
guitar 2 [4x]
e|--------------------|
B|--------------------|
G|--------------------|
D|----7~---2~---3~----|
A|----5~---2~---3~----|
D|----0~---2~---3~----|
bridge guitar 1
e|---------------------------------------|
B|---------------------------------------|
G|----9---10---9---10---14---10---14---17|
D|----x----x---x----x----x----x----x----x|
A|----7----8---7----8---12----8---12---15|
D|---------------------------------------|
bridge guitar 2
e|---------------------------------------------|
B|---------------------------------------------|
G|----2----------------------------------2-----|
D|----2-2-2-2-2-2----5--3-3-3--2--3-3-3--2-----|
A|----0-0-0-0-0-0----5--3-3-3--2--3-3-3--0-----|
D|-------------------5--3-3-3--2--3-3-3--------|
[your eyes part]
then bridge guitar 1
e|----------------------------------------------|
B|----------------------------------------------|
G|-------7-7-7-7-7-7--9-9-9-9-9-9--101010101010-|
D|-------x-x-x-x-x-x--x-x-x-x-x-x---x-x-x-x-x-x-|
A|-------5-5-5-5-5-5--7-7-7-7-7-7---8-8-8-8-8-8-|
D|----------------------------------------------|
bridge guitar 2
e|------------------------------------------------------------|
B|------------------------------------------------------------|
G|------------------------------------------------------------|
D|-------0-0-0-0-0-0--0-0-0-0-0-0---8-8-8-8-8-8---0-2-3-0-5-3-|
A|-------0-0-0-0-0-0--0-0-0-0-0-0---8-8-8-8-8-8---0-2-3-0-5-3-|
D|-------0-0-0-0-0-0--0-0-0-0-0-0---8-8-8-8-8-8---0-2-3-0-5-3-|

[intro]
[chorus]
outro guitar 1
e|-------------------------------------5^5^5^5^5^5^6^6^6^6^6^-|
B|--------------5-6-5-6-5-6-5-6-5-6-5-6-----------------------|
G|------------------------------------------------------------|
D|------------------------------------------------------------|
A|------------------------------------------------------------|
D|------------------------------------------------------------|
guitar 2
e|--------------------------------------------------------------------------|
B|--------------------------------------------------------------------------|
G|--------------------------------------------------------------------------|
D|-------------------------------------------------------------33-----------|
A|---333333333333--000000000000--777777777777-888888888888-----33-----------|
D|---333333333333--000000000000--777777777777-888888888888-----33-----------|


the end
Suggest correction
Give kudos to tab author, rate the tab!
1 2 3 4 5
comments
print report bad tab
1 comment total.
0 reply
FinderofNemo 327 wrote on February 19 2007, 06:34 pm

You got a lot of it wrong

guest
You may want to rate the tab now too:
select rating
Please do not post tabs as comments. Select "correction" instead!