Oops, an error
Loading. Please wait.

Toxic Tab

version 3
version 3

Whole song

Interactive

2,194 views 3 this week
no commentswrite comment
1 2 3 4 5
please rate
add to favorites
launch autoscroll
font size
0
reset
how to read this tab
guitar tuner
Tab Pro tools
  • play this tab
  • loop segment
  • change instrument
  • show fretboard
  • metronome
×
Best way to learn
"Toxic"
Autoscroll
slow
fast
+/-
esc
set tempo
stop
Intro

Guitar 1 Main Riff
                    slide up
D|--------------------------------|
A|-----------------6/10-----------|
F|---------------------9-10-9-7---|
C|--------------------------------|
G|--------------------------------|
C|-0-0h4p0-0h4p0------------------|

Guitar 2 (acoustic riff)
              PM
D|------5-----x--5---|
A|-----6-6----x--6---|
F|----7---7---x--7---|
C|---7-----7--x--7---|
G|--5-------5-x--5---|
C|-------------------|

[Push thru the strings and sweep up to get that spanish feel]

Verse 1

  Baby can't
  you see..

D|----------------------|
A|---------7------------|
F|----------------------|
C|---------5------------|
G|----------------------|
C|----------------------|

  Your dangerous..    I'm lovin it..

D|--------------------|
A|--------6---/10-----|
F|--------------------|
C|--------3---/7------|
G|--------------------|
C|--------------------|

D|--------------------------------|
A|-----------------6/10-----------|
F|---------------------9-10-9-7---|
C|--------------------------------|
G|--------------------------------|
C|-0-0h4p0-0h4p0------------------| REPEAT TWICE

 So I... (chuggy bit)

D|-------------------------|
A|-------------------------|
F|-------------------------| (you get the idea just follow the beat)
C|-------------------------|
G|-------------------------|
C|--0-00-0-00--0-00-00-1-0-|

D|--------------------|
A|--------------------|
F|--------------------|
C|--------------------|
G|--444-444--888-888--|
C|--444-444-/888-888--| can you feel me now..


D|---------------------------------|
A|-----------------6/10------------|
F|---------------------9-10-9-7~~~-|
C|---------------------------------|
G|---------------------------------|
C|-0-0h4p0-0h4p0-------------------|

cHOURS

-
D|--------------------------------------------------------|
A|--------------------------------------------------------|
F|--14-14-14-14--14-14-14-14--12-12-12-12--12-12-12-12----|
C|--------------------------------------------------------|
G|--12-12-12-12--12-12-12-12--10-10-10-10--10-10-10-10----|
C|--------------------------------------------------------|


D|--------------------------------------------------------|
A|--------------------------------------------------------|
F|10-10-10-10--10-10-10-10--9-9-9--10-10-10-12-12---------|
C|--------------------------------------------------------|
G|8--8--8--8---8--8--8--8---7-7-7--8--8--8--10-10---------|
C|--------------------------------------------------------|

D|--------------------------------------------------------|
A|--------------------------------------------------------|
F|--14-14-14-14--14-14-14-14--17-17-17-17--17-17-17-17----|
C|--------------------------------------------------------|
G|--12-12-12-12--12-12-12-12--15-15-15-15--10-15-15-15----|
C|--------------------------------------------------------|

D|--------------------------------------------------------|
A|--------------------------------------------------------|
F|--19-19-19-19--19-19-19-19~~~---------------------------|
C|--------------------------------------------------------|
G|--12-12-12-12--12-12-12-12~~~---------------------------|
C|--------------------------------------------------------|

D|------------------------------------------------------------------------|
A|------------------------------------------------------------------------|
F|------------------------------------------------------------------------|
C|------------------------------------------------------------------------|
G|------------------------------------------------------------------------|
C|--00000000000-3333333333333--22222222222222-111111111111-3333--0-- <----|REPEAT TWICE

D|---------------------------------|
A|-----------------6/10------------|
F|---------------------9-10-9-7~~~-|
C|---------------------------------|
G|---------------------------------|
C|-0-0h4p0-0h4p0-------------------|

Verse 2

  it's getting late..

D|----------------------|
A|---------7------------|
F|----------------------|
C|---------5------------|
G|----------------------|
C|----------------------|

Devils cup..          its taking over me

D|----------------------|
A|---------6---/10------|
F|----------------------|
C|---------3---/7-------|
G|----------------------|
C|----------------------|

D|--------------------------------|
A|---------------------------10---|
F|------------------5/7-10-9------|
C|--------------------------------|
G|--------------------------------|
C|-0-0h4p0-0h4p0------------------|

[Back to the chuggy bit]
[Chours]

Solo break down middle sort of thingy o.0


 So I... (chuggy bit)

D|-------------------------------------------------------------|
A|--22-22-22-22--22-22-22-22--21-21-21-21--18-18-18-18---------|
F|------------------------------------------------------19-19--|
C|-------------------------------------------------------------|
G|-------------------------------------------------------------|

I think that is everything, let me know if you need anything else
mrskinz@gmail.com
comments
We did not receive enough feedback on this tab! Please rate:
print report bad tab
1 2 3 4 5
I want to post or [tab]
guest
You may want to rate the tab now too:
select rating
Please do not post tabs as comments. Select "correction" instead!