Oops, an error
Loading. Please wait.

Toxic Tab

version 4
version 4

Whole song

Interactive

1,160 views 1 this week
no commentswrite comment
1 2 3 4 5
not so good
x 2
add to favorites
launch autoscroll
font size
0
reset
how to read this tab
guitar tuner
Tab Pro tools
  • play this tab
  • loop segment
  • change instrument
  • show fretboard
  • metronome
×
Best way to learn
"Toxic"
Autoscroll
slow
fast
+/-
esc
set tempo
stop
Contributor
Difficulty
Tuning
novice
C G C F A D
hey this is my verion of toxic

i worked this out its not 100% but its better than sum of the tabs
that are up hope u like it plz rate and any problems let us know :)

this is in drop c tuning

here goes

intro acoustic bit
|--5--55----5--55--------------------|
|--6--66----6--66--------------------|
|--7--77----7--77--14----------------|
|--7--77----7--77----14-15-12--------|
|--5--55----5--55--------------------|
|------------------------------------|

verse
(listen for timing)
|------------------------------------|
|------------------------------------|
|------------------------------------|
|------------------------------------|
|--55555555555555555555555555555555--|
|------------------------------------|

|------------------------------------|
|------------------------------------|
|------------------------------------|
|------------------------------------|
|--88888888888888884444444444444444--|
|------------------------------------|

|------------------------------|
|------------------------------|
|------------------14----------|
|--------------------14-15-12--|
|--0-0-33003-00320-------------|
|--0-0-33003-00320-------------|

play whole thing twice

sreamo bit
|----------------------------------------------------------------|
|--(its that pattern play 4x)------------------------------------|
|----------------------------------------(last to chords are)----|
|----------------------------------------------------------------|
|--7----7----7---7---------------------10---10---10-6----6----6--|
|--5-55-5-55-5-5-5---------------------8-88-8-88-8--4-44-4-44-4--|
|----------------------------------------------------------------|

|------------------------------|
|------------------------------|
|------------------14----------|
|--------------------14-15-12--|
|--0-0-33003-00320-------------|
|--0-0-33003-00320-------------|

bass plays open c

chorus
|---------------------------------------------|
|---------------------------------------------|
|---------------------------------------------|
|--7-7-7777-10-10-10101010-9-9-9999-8-8-8888--|
|--5-5-5555-8--8---8-8-8-8-7-7-7777-6-6-6666--|
|---------------------------------------------|

|---------------------------------------------|
|---------------------------------------------|
|---------------------------------------------|
|--7-7-7777-10-10-10101010--------------------|
|--5-5-5555-8--8---8-8-8-8-8-8-8888-7-7-7777--|
|--------------------------8-8-8888-7-7-7777--|

i play this cuz it sounds heavier
|-----------------------------------------------------|
|-----------------------------------------------------|
|--------------------------------------------5--------|
|--0---7-----2--------------1--------------0---7------|
|--0-5---8~~-2-2-222-222-22-1-1-111-111-11-0-----8~~--|
|--0---------2-2-222-222-22-1-1-111-111-11-0----------|

|------------------------------|
|------------------------------|
|------------------14----------|
|--------------------14-15-12--|
|--0-0-33003-00320-------------|
|--0-0-33003-00320-------------|

verse
|------------------------------------|
|------------------------------------|
|------------------------------------|
|------------------------------------|
|--55555555555555555555555555555555--|
|------------------------------------|

|------------------------------------|
|------------------------------------|
|------------------------------------|
|------------------------------------|
|--88888888888888884444444444444444--|
|------------------------------------|

|------------------------------|
|------------------------------|
|--------------------------14--|
|------------------12-15-14----|
|--0-0-33003-00320-------------|
|--0-0-33003-00320-------------|

screamo bit
|----------------------------------------------------------------|
|--(its that pattern play 4x)------------------------------------|
|----------------------------------------(last to chords are)----|
|----------------------------------------------------------------|
|--7----7----7---7---------------------10---10---10-6----6----6--|
|--5-55-5-55-5-5-5---------------------8-88-8-88-8--4-44-4-44-4--|
|----------------------------------------------------------------|

|------------------------------|
|------------------------------|
|------------------14----------|
|--------------------14-15-12--|
|--0-0-33003-00320-------------|
|--0-0-33003-00320-------------|

bass plays open c

chorus 
|---------------------------------------------|
|---------------------------------------------|
|---------------------------------------------|
|--7-7-7777-10-10-10101010-9-9-9999-8-8-8888--|
|--5-5-5555-8--8---8-8-8-8-7-7-7777-6-6-6666--|
|---------------------------------------------|

|---------------------------------------------|
|---------------------------------------------|
|---------------------------------------------|
|--7-7-7777-10-10-10101010--------------------|
|--5-5-5555-8--8---8-8-8-8-8-8-8888-7-7-7777--|
|--------------------------8-8-8888-7-7-7777--|

|-----------------------------------------------------|
|-----------------------------------------------------|
|--------------------------------------------5--------|
|--0---7-----2--------------1--------------0---7------|
|--0-5---8~~-2-2-222-222-22-1-1-111-111-11-0-----8~~--|
|--0---------2-2-222-222-22-1-1-111-111-11-0----------|

|------------------------------|
|------------------------------|
|------------------14----------|
|--------------------14-15-12--|
|--0-0-33003-00320-------------|
|--0-0-33003-00320-------------|

lead bit
tremolo pick every note
|-----------------------------|
|-14-13-----------------------|
|-------15-12-----------------|
|-----------------------------|
|-----------------------------|
|-----------------------------|

after that the chords are
strummed same as chorus
|-----------------------------|
|-----------------------------|
|-----------------------------|
|--7-10-9-8-7-6-5-4-----------|
|--5-8--7-6-5-4-3-2-----------|
|-----------------------------|

then to finish chords
|-----------------------------|
|-----------------------------|
|-----------------------------|
|-0-00-0000-00-0003-----------|
|-0-00-0000-00-0003-----------|
|-0-00-0000-00-0003-----------|

chorus

|-------------------------------------------------------------------|
|-------------------------------------------------------------------|
|-------------------------------------------------------------------|
|--333-9-9-9999-8-8-6666-7-7-7777-10-10-10101010--------------------|
|--333-7-7-7777-6-6-6666-5-5-5555--8-8---8-8-8-8-8-8-8888-7-7-7777--|
|--333-------------------------------------------8-8-8888-7-7-7777--|

|------------------------------|
|------------------------------|
|------------------14----------|
|--------------------14-15-12--|
|--0-0-33003-00320-------------|
|--0-0-33003-00320-------------|

|---------------------------------------------|
|---------------------------------------------|
|---------------------------------------------|
|--7-7-7777-10-10-10101010-9-9-9999-8-8-8888--|
|--5-5-5555-8--8---8-8-8-8-7-7-7777-6-6-6666--|
|---------------------------------------------|

|---------------------------------------------|
|---------------------------------------------|
|---------------------------------------------|
|--7-7-7777-10-10-10101010--------------------|
|--5-5-5555-8--8---8-8-8-8-8-8-8888-7-7-7777--|
|--------------------------8-8-8888-7-7-7777--|

|-----------------------------------------------------|
|-----------------------------------------------------|
|--------------------------------------------5--------|
|--0---7-----2--------------1--------------0---7------|
|--0-5---8~~-2-2-222-222-22-1-1-111-111-11-0-----8~~--|
|--0---------2-2-222-222-22-1-1-111-111-11-0----------|

|------------------------------|
|------------------------------|
|------------------14----------|
|--------------------14-15-12--|
|--0-0-33003-00320-------------|
|--0-0-33003-00320-------------|

thats about it hope u enjoy playing it 
plz rate and all comments are welcome :)

comments
We did not receive enough feedback on this tab! Please rate:
print report bad tab
1 2 3 4 5
I want to post or [tab]
guest
You may want to rate the tab now too:
select rating
Please do not post tabs as comments. Select "correction" instead!