Oops, an error
Loading. Please wait.

All Around The World intro tab

5,653 views 21 this week
2 commentsread comments
1 2 3 4 5
1 last vote to show rating
add to favorites
×
Save as Personal and add changes to this tab that will be seen only by you. Learn more ›
×
You can save this tab as Personal to edit and correct it or add notes. All changes will be seen only by you. Learn more »
launch autoscroll
font size
0
reset
how to read this tab
guitar tuner
edit
Autoscroll
slow
fast
+/-
esc
set tempo
stop
Author
Difficulty
ATC(A Touch of Class)- All Around the World (la la la la la)
The band's website is: http://en.wikipedia.org/wiki/Around_The_World_%28La_La_La_La_La%29

I obviously don't listen to this but it sounds great on metal distortion.
Cheap simple tab...

E-----------------|-----------------|-----------------|-----------------|
B-----------------|--17-------17----|--12------12-----|-13-------13-----|
G-----------------|-----14-17-------|-----9-12--------|----10-14--------|
D-----------------|-----------------|-----------------|-----------------|
A-----------------|-----------------|-----------------|-----------------|
E-----------------|-----------------|-----------------|-----------------|
 
E-----------------|-----------------|-----------------|-----------------|
B--15-------15----|-----------------|-----------------|-----------------|
G-----12-16-------|-----------------|-----------------|-----------------|
D-----------------|-----------------|-----------------|-----------------|
A-----------------|-----------------|-----------------|-----------------|
E-----------------|-----------------|-----------------|-----------------|
 
That's all. Repeat it till your head hurts.
-StrY

            
            
Suggest correction
Creating personal tab
Creating personal tab
You can edit any tab online and save it as your Personal.

You can edit, replace or remove any tab part or add personal notes – all changes will be seen only by you.

Personal tabs can be accessed anytime from any device, even offline.
Learn more »
Give kudos to tab author, rate the tab!
1 2 3 4 5
comments
print report bad tab
2 comments total.
0 reply
Siderean 10 May 12, 2014 03:49 PM

like this its just a bit easier
-----------------|-----------------|-----------------|-----------------|
B-----------------|--17-------17----|--12------12-----|-13----10-13-----|
G-----------------|-----14-17-------|-----9-12--------|----10-----------|
D-----------------|-----------------|-----------------|-----------------|
A-----------------|-----------------|-----------------|-----------------|
E-----------------|-----------------|-----------------|-----------------|

E-----------------|-----------------|-----------------|-----------------|
B--15----12-15----|-----------------|-----------------|-----------------|
G-----12----------|-----------------|-----------------|-----------------|
D-----------------|-----------------|-----------------|-----------------|
A-----------------|-----------------|-----------------|-----------------|
E-----------------|-----------------|-----------------|-----------------|

0 reply
gumaa95 10 Aug 19, 2015 03:51 AM

I prefer something like this
E--12----8--12----|--7-----3--7-----|--7-----5--7-----|--10-----7-10----|
B-----10----------|-----5-----------|-----6-----------|------8----------|
G-----------------|-----------------|-----------------|-----------------|
D-----------------|-----------------|-----------------|-----------------|
A-----------------|-----------------|-----------------|-----------------|
E-----------------|-----------------|-----------------|-----------------|

guest
You may want to rate the tab now too:
select rating
Wanna post a correction for this tab? Suggest correction