Oops, an error
Loading. Please wait.

Around The World tab

version 1
version 1

Whole song

Interactive

1,821 views 6 this week
4 commentsread comments
1 2 3 4 5
x 4
add to favorites
×
Save as Personal and add changes to this tab that will be seen only by you. Learn more ›
×
You can save this tab as Personal to edit and correct it or add notes. All changes will be seen only by you. Learn more »
launch autoscroll
font size
0
reset
how to read this tab
guitar tuner
edit
Autoscroll
slow
fast
+/-
esc
set tempo
stop
Author
Difficulty
vid of this song http://www.youtube.com/watch?v=xPTucJRSBaE

play all of this continuously the whole song uses the melody though our the whole song 
only varies by changing type of instrument played by the notes are all the same
      Q    Q    Q    Q       Q    Q    Q    Q       Q    Q    Q    Q       Q    Q    Q   
Q    99x
E||---0--------------0----|----------------------|----------------------|-----------------------||
B||-------------1---------|--0--------------0----|--1--------------1----|--3---------0----3-----||
G||*-------2--------------|------------0---------|------------2---------|-------0--------------*||
D||*----------------------|-------2--------------|-------3--------------|----------------------*||
A||-----------------------|----------------------|----------------------|-----------------------||
E||-----------------------|----------------------|----------------------|-----------------------||

            
            
Suggest correction
Creating personal tab
Creating personal tab
You can edit any tab online and save it as your Personal.

You can edit, replace or remove any tab part or add personal notes – all changes will be seen only by you.

Personal tabs can be accessed anytime from any device, even offline.
Learn more »
comments
print report bad tab
4 comments total. Showing first comments.
+1 reply
hozarth 94 Aug 07, 2009 07:22 AM

is this the part played on the weird bells

0 reply
Shawn Galea 73 Aug 08, 2009 05:35 AM

you're right man :)

0 reply
snesnes44 10 Aug 06, 2014 09:56 AM

Last part sounds better with
-----------------
-3-----------3---
-----0---4-------
-----------------
-----------------
-----------------
because the b rings out longer and the shape stays for the first bar again

only preference ofc

guest
You may want to rate the tab now too:
select rating
Wanna post a correction for this tab? Suggest correction